Beatles - Let It Be Chords & Tabs

 

Let It Be Chords & Tabs

Beatles Chords & Tabs

Version: 12 Type: Tab

Let It Be Tab

   
ok here is let it be by the beatles
altho its played on the piano for many parts it stil sounds kl on the guitar nd the solos prety gd 2 
so gud luk learnin dis clasic

Intro 

C G Am F C G F Em Dm C

Verse I

        C             G                 Am          F
When I find myself in times of trouble, Mother Mary comes to me
   C               G             F Em Dm C
Speaking words of wisdom, let it be
    C             G                  Am                F
And in my hour of darkness, She is standing right in front of me
    C             G              F Em Dm C
Speaking words of wisdom, Let it be

Chorus I

       Am         G          F          C
Let it be, let it be, let it be, let it be
 C                G              F Em Dm C
Whisper words of wisdom, let it be

Verse II (hi-hat)

    C                G              Am            F
And when the broken hearted people, Living in the world agree
C                G              F Em Dm C 
There will be an answer, let it be
    C                 G                 Am                 F  
But though they may be parted, There is still a chance that they may see
C               G               F Em Dm C
There will be an answer, let it be

Chorus II (full drums)

       Am          G           F         C
Let it be, let it be, let it be, let it be
       C                G              F Em Dm C
Yeah, there will be an answer, let it be
       Am         G          F           C
Let it be, let it be, let it be, let it be
C                G               F Em Dm C
Whisper words of wisdom, let it be

Bridge

|-5-3-1-0------------------|
|-6-5-3-1-3-1-0------------|
|---------4-2-0-2-0--------|
|---------------3-2--------|
|--------------------------|
|--------------------------|                 x2

Guitar Solo 
[ Tab from: http://www.guitartabs.cc/tabs/b/beatles/let_it_be_tab_ver_12.html ]
  Guitar 1 (solo on the front)           
|----------------------------------------------------------|
|----------------------------------------------------------|
|----------------------------------------------------------|
|----------------------------------------------5-7p5-------|
|--------------------3-3-5b7r5-3-5-5-----3h5/7-------7\\5-3|
|----------------3h5-----------------3h5-------------------|
|   Guitar 2 (solo on the back)                             
|----------------------------------------------------------|
|----------------------------------------------------------|
|-5----5-------------------------------------5-7b9-(9)bd-5-|
|-7b8-(8)bd7---------------5-5---5-------5h7---------------|
|--------------7\\5---3-3/7-----7--------------------------|
|----------------------------------------------------------|
  
|---------------------------------------------------------|
|------------------8-8b9r8--------------------------------|
|--------------5-7---------7b8r7-5-7p5--------------------|
|---5-5----5-7-------------------------7-5----------------|
|-7----------------------------------------7-5b6r5-3------|
|---------------------------------------------------------|
|                                                         |
|-----8--------------5------------------------------------|
|--------------------5------------------------------------|
|-7/9---7b9r-5h7-7b9---(9)r7---5--------------------------|
|----------------------------------7p5-7p5----------------|
|------------------------------------------7\\5-3h5-3-----|
|---------------------------------------------------------|
     
|---------------------------------------------------------|
|-------------------------------------8-10p8--------------|
|-----------------7/9-7-5h7-------7/9--------9\\7-5-------|
|-----------5/7-5-----------7-5h7-------------------------|
|-----5/7-3-----------------------------------------------|
|-3/5-----------------------------------------------------|
|                                                         |
|----------------------------------------------8-10b12----|
|-----------------8------8-----8--10-------8h10-----------|
|-----5-5---5-7b------7b----7b----------------------------|
|-5/7-----7-----------------------------------------------|
|---------------------------------------------------------|
|---------------------------------------------------------|

|------------------------8--------10b12r10-10-8-----------|
|--------------------------10p8-----------------10--------|
|------------------5h7/9--------9-------------------------|
|--------------5h7----------------------------------------|
|---------------------------------------------------------|
|---------------------------------------------------------|
|                                                         |
|-(12)r10-8h10-8------------------17b18r17----------------|
|-------------------------------0------------------17\\15-|
|---------------------------------------------------------|
|---------------------------------------------------------|
|---------------------------------------------------------|
|---------------------------------------------------------|

|---------------------------------------------------------|
|--8---10p8-----------------------------------------------|
|----9--------9\\7---5--5---------------------------------|
|---------------------------------------------------------|
|---------------------------------------------------------|
|---------------------------------------------------------|
|                                                         |
|---------------------------------------------------------|
|----13-15-17\\15-13h15-13--------------------------------|
|---------------------------------------------------------|
|---------------------------------------------------------|
|---------------------------------------------------------|
|---------------------------------------------------------|

Chorus III

       Am         G           F         C
Let it be, let it be, let it be, let it be
C                 G              F Em Dm C
Whisper words of wisdom, let it be

Verse III

    C                 G
And when the night is cloudy, 
          F                  C
There is still a light that shines on me
 C                G             F Em Dm C
Shine on till tomorrow, let it be
    C              G             G            C
I wake up to the sound of music, Mother Mary comes to me
    C              G              F Em Dm C
Speaking words of wisdom, let it be

Chorus IV

       Am          G           F         C
Let it be, let it be, let it be, let it be
C                 G              F Em Dm C
There will be an answer, let it be
       Am         G          F           C
Let it be, let it be, let it be, let it be
C                G               F Em Dm C
Whisper words of wisdom, let it be

there u go
its not very chalengin bt its a gr8 piece of songwritin and fun 2 play
peace

rocktabber