Beatles - Let It Be Chords & Tabs

 

Let It Be Chords & Tabs

Beatles Chords & Tabs

Version: 10 Type: Tab 0 ratings
1 star 2 stars 3 stars 4 stars 5 stars
comments

Let It Be Tab

   
Not positive on the Inturlude or the Outro so email me if you find any mistakes
( jarrod.glover@gmail.com ) Thanks guys and gals




Verse 1
       A              E                F#m         D
When I find myself in times of trouble Mother Mary comes to me,
A                 E                D C#m Bm A
Speaking words of wisdom, Let it be,
        A                       E                     F#m                   D
And in my hour of darkness she is standing right in front of me,
A                            E                      D C#m Bm A
Speaking words of wisdom, Let it be,

Chorus
       F#m        E          D          A
Let it be, Let it be, Let it be, Let it be,
A                E                      D C#m Bm A
Whisper words of wisdom, let it be.

Verse 2
    A               E               F#m           D
And when the broken hearted people, Living in the world agree,
A                E               D C#m Bm A
There will be an answer, let it be
    A                E       F#m              D
For tho' they may be parted, There is still a chance that they will see,
A                E                D C#m Bm A
There will be an answer, let it be

Chorus 2
       F#m        E              D             A
Let it be, Let it be, Let it be, Let it be,
A                E               D C#m Bm A
There will be an answer, let it be, 
       F#m        E          D             A
Let it be, Let it be, Let it be, Let it be,
A                E                    D C#m Bm A
Whisper words of wisdom, let it be.
[ Tab from: http://www.guitartabs.cc/tabs/b/beatles/let_it_be_tab_ver_10.html ]
Verse 3
    A                 E        F#m             D
And when the night is cloudy, There is still a light that shines on me,
A           E                   D C#m Bm A
Shine until tomorrow, let it be,
  A              E               F#m         D
I wake up to the sound of music, Mother Mary comes to me,
A                 E                D C#m Bm A
Speaking words of wisdom, let it be

Chorus 2
       F#m        E          D          A
Let it be, Let it be, Let it be, Let it be,
A                        E          D C#m Bm A
There will be an answer, let it be, 
       F#m        E          D          A
Let it be, Let it be, Let it be, Let it be,
A                E                D C#m Bm A
Whisper words of wisdom, let it be.

Interlude
A---8--7--5--3------------------|
E---------------6--5--3--1--0---|

A---8--7--5--3-----------3--3---|
E---------------6--5--3---------|


Solo
e------------------------------------------------------------------|
b------------------------------------------------------------------|
g------------------------------------------------------------------|
d--------------------------------------------57p5-----------------|
a----------3--37p5--3--5--5-------3h5/7-------------7p5--3--------|
e------3h5--------------------3h5----------------------------------|

e------------------------------------------------------------------|
b-----------------------------8------------------------------------|
g---------------------5--7/9-----9/7-9/7--5--7--5------------------|
d------5--5-----5--7-------------------------------7--5------------|
a---7--------7-------------------------------------------7--5--3---|
e------------------------------------------------------------------|

e-----------------------------------------------------------------|
b-----------------------------------------------8--10--8----------|
g----------------------9--75h7--------------9------------9--7--5-|
d---------------7--5---------------7---5--7-----------------------|
a-------7--3-----------------------------------------------------|
e---3h5-----------------------------------------------------------|

e---------------8-------------12--10--8--------|
b------------------10p8------------------10--8-|
g--------5/9--------------9--------------------|
d--5h7----------------------------------------|
a----------------------------------------------|
e----------------------------------------------|

e-------------------------|
b------10p8---------------|
g---9--------9\7--5h7--5--|
d-------------------------|
a-------------------------|
e-------------------------|

Outro

A---8--7--5--3-----------------|
E---------------6--5--3--1--0--|
Comments