Beatles - Let It Be Solo Chords & Tabs

 

Let It Be Solo Chords & Tabs

Beatles Chords & Tabs

Version: 2 Type: Tab 4 ratings
1 star 2 stars 3 stars 4 stars 5 stars
comments

Let It Be Solo Tab

   
ok here is the cooler let it be solo that i think is only on the
origional Let It Be album. its not that hard to play... all in the 
Am pentatonic
this is 100% correct, trust me

have fun

E ---------------------------------------------------------
B ---------------------------------------------------------
G -5---5-----------------------------5-7^-^7-5*------------
D -5h7-5--------------5-5---5*---5-7-----------------------
A --------7/5-3---5/7-----5--------------------------------
E ---------------------------------------------------------

[ Tab from: http://www.guitartabs.cc/tabs/b/beatles/let_it_be_solo_tab_ver_2.html ]
E ----8-----------5------------------------------------------
B -----------------------------------------------------------
G -/9--9/7-5-7-7^---^7-5-------------------------------------
D -----------------------7-5-7-5-----------------------------
A -------------------------------7/5-3-5-3-------------------
E -----------------------------------------------------------

E ---------------------------------------------------------
B ------------------8----8----8-10*------------------------
G ------5-5---5--/9---/9---/9------------------------------
D --5-7-----7----------------------------------------------
A ---------------------------------------------------------
E ---------------------------------------------------------

E ------8-10^-10^-8-10-8--------15^-----------------------------
B -8-10----------------------13------15^-13-15-13-15^-13-15-13*-
G --------------------------------------------------------------
D --------------------------------------------------------------
A --------------------------------------------------------------
E --------------------------------------------------------------


Need any Beatles or Blink 182 tabs?
Feel free to email me at MIATA1188@AOL.COM for 100% correct tabs
for either two of the bands
Comments