Beatles - Leave My Kitten Alone Chords & Tabs

 

Leave My Kitten Alone Chords & Tabs

Beatles Chords & Tabs

Version: 2 Type: Bass Tab 0 ratings
1 star 2 stars 3 stars 4 stars 5 stars
comments

Leave My Kitten Alone Bass Tab

LEAVE MY KITTEN ALONE

Written by Little Willie John, Titus Turner & James McDougal

INTRO

  00:01

  t=200
G|---------------------------------|---------------------------------|
D|---------------------------------|---------------------------------|
A|-3-----------3-----------1-------|-3-----------3-----------1-------|
E|-----------------3---------------|-----------------3---------------|

G|---------------------------------|-------------------------3-------|
D|---------------------------------|-----------------3-/-5-----------|
A|-3-----------3-----------1-------|-3-------------------------------|
E|-----------------3---------------|---------------------------------|

VERSE

  00:05

G|---------------------------------|---------------------------------|
D|---------------------------------|---------------------------------|
A|-3-----------3-----------1-------|-3----------3------------1-------|
E|-----------------3---------------|-----------------3---------------|

G|---------------------------------|---------------------------------|
D|---------------------------------|---------------------------------|
A|-3-----------3-----------1-------|-3-----------3-----------1-------|
E|-----------------3---------------|-----------------3---------------|

G|---------------------------------|---------------------------------|
D|---------------------------------|---------------------------------|
A|-3-----------3-----------1-------|-3-----------3-----------1-------|
E|-----------------3---------------|-----------------3---------------|

G|---------------------------------|-------------------------3-------|
D|---------------------------------|-----------------3-/-5-----------|
A|-3-----------3---3---------------|-3-------------------------------|
E|---------------------------------|---------------------------------|

G|---------------------------------|---------------------------------|
D|-3-----------3-----------1-------|-3-----------3-----------1-------|
A|-----------------3---------------|-----------------3---------------|
E|---------------------------------|---------------------------------|

G|---------------------------------|-------------------------3-------|
D|-3-----------------------1-------|-3---------------3-/-5-----------|
A|-----------------3---------------|---------------------------------|
E|---------------------------------|---------------------------------|

G|---------------------------------|---------------------------------|
D|---------------------------------|---------------------------------|
A|-3-----------3-----------1-------|-3-----------3-----------1-------|
E|-----------------3---------------|-----------------3---------------|

G|---------------------------------|---------------------------------|
D|---------------------------------|---------------------------------|
A|-3-----------3-----------1-------|-3-----------------------3-------|
E|-----------------3---------------|-----------------3---------------|

G|---------------------------------|---------------------------------|
D|-5-----------------------3-------|-5-----------5-----------5-------|
A|-----------------5---------------|-----------------5---------------|
E|---------------------------------|---------------------------------|

G|---------------------------------|---------------------------------|
D|-3-------------------------------|---------------------------------|
A|---------------------------------|---------------------------------|
E|---------------------------------|---------------------------------|

G|---------------------------------|---------------------------------|
D|---------------------------------|---------------------------------|
A|-3-----------3-----------1-------|-3-----------3-----------1-------|
E|-----------------3---------------|-----------------3---------------|

G|---------------------------------|-------------------------3-------|
D|---------------------------------|-------------3-/-5---------------|
A|-3-----------3-----------1-------|-3-------------------------------|
E|-----------------3---------------|---------------------------------|

VERSE

  00:34

G|---------------------------------|---------------------------------|
D|---------------------------------|---------------------------------|
A|-3-----------3-----------1-------|-3-----------3-----------1-------|
E|-----------------3---------------|-----------------3---------------|

G|---------------------------------|---------------------------------|
D|---------------------------------|---------------------------------|
A|-3-----------------------1-------|-3-----------3-------------------|
E|-----------------3---------------|-----------------3---------------|

G|---------------------------------|---------------------------------|
D|---------------------------------|---------------------------------|
A|-3-----------3-------------------|-3-------------------------------|
E|-----------------3---------------|-----------------3---------------|

G|---------------------------------|---------------------------------|
D|---------------------------------|---------------------------------|
A|-3-----------3-----------1-------|-3-----------------------1-------|
E|-----------------3---------------|-----------------1-/-3-----------|

G|---------------------------------|---------------------------------|
D|-3-----------3-----------1-------|-3-----------3-----------1-------|
A|-----------------3---------------|-----------------3---------------|
E|---------------------------------|---------------------------------|

G|---------------------------------|---------------------------------|
D|-3-----------------------1-------|-3-----------3-----------3/------|
A|-----------------3---------------|-----------------3---------------|
E|---------------------------------|---------------------------------|

G|---------------------------------|---------------------------------|
D|---------------------------------|---------------------------------|
A|-3-----------3-----------1-------|-3-----------3-----------1-------|
E|-----------------3---------------|-----------------3---------------|

G|---------------------------------|---------------------------------|
D|---------------------------------|---------------------------------|
A|-3-----------3-----------1-------|-3-----------3-----------3-------|
E|-----------------3---------------|-----------------3---------------|

G|---------------------------------|---------------------------------|
D|-5-----------------------3-------|-5-----------------------5-------|
A|-----------------5---------------|-----------------5---------------|
E|---------------------------------|---------------------------------|

G|---------------------------------|---------------------------------|
D|-3-------------------------------|---------------------------------|
A|---------------------------------|---------------------------------|
E|---------------------------------|---------------------------------|

G|---------------------------------|---------------------------------|
D|---------------------------------|---------------------------------|
A|-3-----------3-----------1-------|-3-----------3-----------1-------|
E|-----------------3---------------|-----------------3---------------|

G|---------------------------------|---------------------------------|
D|-----------------5---------------|-----------------5---------------|
A|-3-------------------------------|-3-------------------------------|
E|---------------------------------|---------------------------------|

BRIDGE

  01:03

G|---------------------------------|---------------------------------|
D|---------------------------------|-----------------3---------------|
A|-3-------3-------3-------3-------|-3-------3---------------3-------|
E|---------------------------------|---------------------------------|

G|---------------------------------|---------------------------------|
D|---------------------------------|-----------------3---------------|
A|-3-------3-------3-------3-------|-3-------3---------------3-------|
E|---------------------------------|---------------------------------|

G|---------------------------------|---------------------------------|
D|---------------------------------|-----------------3---------------|
A|-3-------3-------3-------3-------|-3-------3---------------3-------|
E|---------------------------------|---------------------------------|

G|---------------------------------|-----------------3---------------|
D|---------------------------------|---------3-/-5-------------------|
A|-3-------3-------3-------3-------|-3-------------------------------|
E|---------------------------------|---------------------------------|

VERSE

  01:12

G|---------------------------------|---------------------------------|
D|-3-------3---------------1-------|-3-------3---------------1-------|
A|-----------------3---------------|-----------------3---------------|
E|---------------------------------|---------------------------------|

G|---------------------------------|-------------------------3-------|
D|-3-----------------------1-------|-3---------------3-/-5-----------|
A|-----------------3---------------|---------------------------------|
E|---------------------------------|---------------------------------|

G|---------------------------------|---------------------------------|
D|---------------------------------|---------------------------------|
A|-3-----------3-----------1-------|-3-----------3-----------1-------|
E|-----------------3---------------|-----------------3---------------|

G|---------------------------------|---------------------------------|
D|---------------------------------|---------------------------------|
A|-3-----------3-----------1-------|-3-----------3-----------3-------|
E|-----------------3---------------|-----------------3---------------|

G|---------------------------------|-----------------3-------5-------|
D|-5-----------------------3-------|-5-------5-----------------------|
A|-----------------5---------------|---------------------------------|
E|---------------------------------|---------------------------------|
[ Tab from: http://www.guitartabs.cc/tabs/b/beatles/leave_my_kitten_alone_btab_ver_2.html ]
G|---------------------------------|---------------------------------|
D|-3-------------------------------|---------------------------------|
A|---------------------------------|---------------------------------|
E|---------------------------------|---------------------------------|

G|---------------------------------|---------------------------------|
D|---------------------------------|---------------------------------|
A|-3-----------3-----------1-------|-3-----------3-----------1-------|
E|-----------------3---------------|-----------------3---------------|

G|---------------------------------|---------------------------------|
D|---------------------------------|---------------------------------|
A|-3-----------3-----------1-------|-3-----------3-----------3-------|
E|-----------------3---------------|-----------------3---------------|

GUITAR SOLO

  01:32

G|-------------------------3-------|-------------------------3-------|
D|-------------3-/-5---------------|-------------3-/-5---------------|
A|-3-------------------------------|-3-------------------------------|
E|---------------------------------|---------------------------------|

G|-------------------------3-------|-------------------------3-------|
D|-------------3-/-5---------------|-------------3-/-5---------------|
A|-3-------------------------------|-3-------------------------------|
E|---------------------------------|---------------------------------|

G|-------------------------3-------|-------------------------3-------|
D|-----------------5---------------|-----------------5---------------|
A|-3-------3-----------------------|-3-------3-----------------------|
E|---------------------------------|---------------------------------|

G|-------------------------3-------|-------------------------3-------|
D|-----------------5---------------|-----------------5---------------|
A|-3-------------------------------|-3-----------3-------------------|
E|---------------------------------|---------------------------------|

G|---------------------------------|---------------------------------|
D|-3-------3---------------1-------|-3-------3---------------1-------|
A|-----------------3---------------|-----------------3---------------|
E|---------------------------------|---------------------------------|

G|---------------------------------|-----------------3---------------|
D|-3-----------3-------------------|-3-------3-/-5-------------------|
A|-----------------3---------------|---------------------------------|
E|---------------------------------|---------------------------------|

G|---------------------------------|-----------------3---------------|
D|---------------------------------|---------3-/-5-------------------|
A|-3-----------3-----------1-------|-3-------------------------------|
E|-----------------3---------------|---------------------------------|

G|---------------------------------|---------------------------------|
D|---------------------------------|-----------------3-/-5---5-------|
A|-3-----------3-----------1-------|-3-------3-----------------------|
E|-----------------3---------------|---------------------------------|

G|---------------------------------|---------------------------------|
D|-5-------5-------5-------5-------|-5-------5-------5-------5-------|
A|---------------------------------|---------------------------------|
E|---------------------------------|---------------------------------|

G|---------------------------------|-----------------3-------3-------|
D|-3-------3-------3-------3-------|-3-------3-/-5-------------------|
A|---------------------------------|---------------------------------|
E|---------------------------------|---------------------------------|

G|-5-------5-----------------------|-5-----------5-------------------|
D|-----------------5---------------|-----------------5-----------5---|
A|---------------------------------|---------------------------------|
E|---------------------------------|---------------------------------|

G|-5-----------5-------------------|-5-------5-------3---------------|
D|-----------------5---------------|-------------------------3-------|
A|---------------------------------|---------------------------------|
E|---------------------------------|---------------------------------|

BRIDGE

  02:00

G|---------------------------------|---------------------------------|
D|---------------------------------|-----------------3---------------|
A|-3-------3-------3-------3-------|-3-------3---------------3-------|
E|---------------------------------|---------------------------------|

G|---------------------------------|---------------------------------|
D|---------------------------------|-----------------3---------------|
A|-3-------3-------3-------3-------|-3-------3---------------3-------|
E|---------------------------------|---------------------------------|

G|---------------------------------|---------------------------------|
D|---------------------------------|-----------------3---------------|
A|-3-------3-------3-------3-------|-3-------3-----------------------|
E|---------------------------------|---------------------------------|

G|---------------------------------|-----------------3---------------|
D|---------------------------------|---------3-/-5-------------------|
A|-3-------3-------3-------3-------|-3-------------------------------|
E|---------------------------------|---------------------------------|

VERSE

  02:10

G|---------------------------------|---------------------------------|
D|-3-----------3-----------1-------|-3-----------3-------------------|
A|-----------------3---------------|-----------------3---------------|
E|---------------------------------|---------------------------------|

G|---------------------------------|-------------------------3-------|
D|-3-----------3-------------------|-3---------------3-/-5-----------|
A|-----------------3---------------|---------------------------------|
E|---------------------------------|---------------------------------|

G|---------------------------------|---------------------------------|
D|-----------------5---------------|-----------------5---------------|
A|-3-----------3-----------1-------|-3-----------3-----------1-------|
E|---------------------------------|---------------------------------|

G|---------------------------------|-------------------------3-------|
D|-----------------5---------------|-----------------5---------------|
A|-3-----------3-----------1-------|-3-----------3-------------------|
E|---------------------------------|---------------------------------|

G|---------------------------------|---------------------------------|
D|-5-----------------------3-------|-5-----------5-----------5-------|
A|-----------------5---------------|-----------------5---------------|
E|---------------------------------|---------------------------------|

G|---------------------------------|-----------------3-------5-------|
D|-3-------------------------------|---------3-/-5-------------------|
A|---------------------------------|---------------------------------|
E|---------------------------------|---------------------------------|

G|---------------------------------|---------------------------------|
D|---------------------------------|---------------------------------|
A|-3-----------------------1-------|-3-----------3-----------1-------|
E|-----------------3---------------|-----------------3---------------|

G|---------------------------------|---------------------------------|
D|---------------------------------|-----------------5---------------|
A|-3-----------3-----------1-------|-3-----------3-------------------|
E|-----------------3---------------|---------------------------------|

OUTRO

  02:29

G|---------------------------------|---------------------------------|
D|---------------------------------|---------------------------------|
A|-3-----------------------1-------|-3-----------------------1-------|
E|-----------------3---------------|-----------------3---------------|

G|---------------------------------|-------------------------3-------|
D|---------------------------------|-----------------5---------------|
A|-3-----------------------1-------|-3-------3-----------------------|
E|-----------------3---------------|---------------------------------|

G|---------------------------------|---------------------------------|
D|---------------------------------|-----------------5---------------|
A|-3-----------------------1-------|-3-----------3-----------3-------|
E|-----------------3---------------|---------------------------------|

G|---------------------------------|-------------------------3-------|
D|-----------------5---------------|-----------------5---------------|
A|-3-----------3-----------3-------|-3-------3-----------------------|
E|---------------------------------|---------------------------------|

G|---------------------------------|---------------------------------|
D|-3-------3---------------1-------|-3-------3---------------1-------|
A|-----------------3---------------|-----------------3---------------|
E|---------------------------------|---------------------------------|

G|---------------------------------|-----------------3-------5-------|
D|-3-------3---------------1-------|-3-------3-----------------------|
A|-----------------3---------------|---------------------------------|
E|---------------------------------|---------------------------------|

G|-5-----------5-----------3-------|-------------------------3-------|
D|-----------------5---------------|-----------------5---------------|
A|---------------------------------|-3-----------3-------------------|
E|---------------------------------|---------------------------------|

G|-5-----------5-----------3-------|-------------------------5-------|
D|-----------------5---------------|-----------------5---------------|
A|---------------------------------|-3-----------3-------------------|
E|---------------------------------|---------------------------------|

G|---------------------------------|---------------------------------|
D|-5-------5---------------3-------|-5-----------5-----------5-------|
A|-----------------5---------------|-----------------5---------------|
E|---------------------------------|---------------------------------|

G|---------------------------------|---------------------------------|
D|-3-------------------------------|---------------------------------|
A|---------------------------------|---------------------------------|
E|---------------------------------|---------------------------------|
Comments