Beatles - Lady Madonna Chords & Tabs

 

Lady Madonna Chords & Tabs

Beatles Chords & Tabs

Version: 4 Type: Bass Tab 0 ratings
1 star 2 stars 3 stars 4 stars 5 stars
comments

Lady Madonna Bass Tab

   
-------------------------------------------------------------------------------
			     Lady Madonna - The Beatles
-------------------------------------------------------------------------------

Tabbed By : the_scientist87
e-mail: 
Tuning: Normal

Don't use a pick for this one.

The |'s in the tab don't count towards timing, 16 beats a bar. In the second bar in
Part A, sometimes the line varies in that it is missing the first 0 on the A string.
Also in Part A, for the 4th fret 16th notes on the D string in the first two bars it
is best to not pluck the note, but instead just press hard and use the vibration of
your pluck for the 3rd fret note just before it.

[ Tab from: http://www.guitartabs.cc/tabs/b/beatles/lady_madonna_btab_ver_4.html ]
Part A:
G|--------------2-|--------------2-|----------------|---0-0-2--------|
D|--------0-0-34--|--------0-0-34--|--------0-0-2-2-|3-3-------------|
A|0-0-3-4---------|0-0-3-4---------|--0-3-4---------|----------------|
E|----------------|----------------|----------------|----------------|


Part B:
G|----------------|----------------|----------------|----------------|
D|----------------|5-5-3-3-2-2-0-0-|----------------|------------2-2-|
A|5-5-3-3-2-2-0-0-|----------------|3-3-2-2-0-0-----|0-0-2-2-3-3-----|
E|----------------|----------------|------------3-3-|----------------|

Part C:
G|----------------|----------------|----------------|----------------|
D|----------------|5-5-3-3-2-2-0-0-|----------------|----------------|
A|5-5-3-3-2-2-0-0-|----------------|3---0-----------|----------------|
E|----------------|----------------|--------2---2---|----------------|

Part D:
G|----------------|----------------|
D|----------------|----------------|
A|0-0---0-5-5---5-|6---5-4---------|
E|----------------|----------------|

The order is:
A x 3
B x 1
C x 1
A x 2
B x 1
C x 1
A x 2
B x 1
C x 1
A x 1
D x 2
Comments