Beatles - Lady Madonna Chords & Tabs

 

Lady Madonna Chords & Tabs

Beatles Chords & Tabs

Version: 2 Type: Bass Tab 0 ratings
1 star 2 stars 3 stars 4 stars 5 stars
comments

Lady Madonna Bass Tab

The Base and the guitar plays the same mainriff Twise


Main riff  G---------------2------
           D---------0-0-34-------           
           A-0-0-3-4--------------
           E----------------------


Then goes the bass line like this:

riff nr2   G----------------------------------
           D-----------------3-3-5-5-7--------
           A-0-0-4-4-5-5-7-7-----------0------
           E----------------------------------

Play The main riff 2 times then riff nr2 then The main riff 2 times then riff nr2 again. 
[ Tab from: http://www.guitartabs.cc/tabs/b/beatles/lady_madonna_btab_ver_2.html ]
Chorus: 
G---------------------------------------------
D-----------------5-5-3-3-2-2-0-0-------------
A-5-5-3-3-2-2-0-0-----------------3-3-2-2-0-0-
E---------------------------------------------

G------------------------------------------------------
D-------------------------------------5-5-3-3-2-2-0-0--
A-----0-0-2-2-3-3-4-4-5-5-3-3-2-2-0-0------------------
E-3-3--------------------------------------------------


G--------------------------------------
D--------------------------------------
A-3-5-3-7------------------------------
E---------0----------------------------


Then Back and play next verse (The main riff 2 times then riff nr2 then The main riff 
2 times then riff nr2 again)


Not tabbed by Klas Johansson GOOD LUCK!!!!!
Any qestions ask me at fasen_tusan@hotmail.com
Comments