Beatles - Keep Your Hands Off My Baby Chords & Tabs

 

Keep Your Hands Off My Baby Chords & Tabs

Beatles Chords & Tabs

Version: 2 Type: Bass Tab 0 ratings
1 star 2 stars 3 stars 4 stars 5 stars
comments

Keep Your Hands Off My Baby Bass Tab

KEEP YOUR HANDS OFF MY BABY

Written by Gerry Goffin & Carole King

INTRO
  t=137
G|---------------------------------|---------------------------------|
D|---------------------------------|---------------------------------|
A|-5-----------5---5---------------|-5-----------5---5---------------|
E|---------------------------------|---------------------------------|

VERSE

G|---------------------------------|---------------------------------|
D|---------------------------------|---------------------------------|
A|-5-----------5---5---------------|-5-----------5---5---------------|
E|---------------------------------|---------------------------------|

G|---------------------------------|---------------------------------|
D|-5-----------5---5---------------|-5-----------5---5---------------|
A|---------------------------------|---------------------------------|
E|---------------------------------|---------------------------------|

G|---------------------------------|---------------------------------|
D|---------------------------------|---------------------------------|
A|-5-----------5---5---------------|-5-----------5---5---------------|
E|---------------------------------|---------------------------------|

G|---------------------------------|---------------------------------|
D|-5-----------5---5---------------|---------------------------------|
A|---------------------------------|-5-----5-5-----5-5-----5-5-------|
E|---------------------------------|---------------------------------|

CHORUS

G|---------------------------------|---------------------------------|
D|-5-----------5-------------------|-5-----------5-----------5-------|
A|-----------------5-----------5---|-----------------5---5-----------|
E|---------------------------------|---------------------------------|

G|---------------------------------|---------------------------------|
D|---------------------------------|---------------------------------|
A|-7-----------7-------------------|-7-----------7-----------7-------|
E|-----------------7-----------7---|-----------------7---7-----------|

G|---------------------------------|---------------------------------|
D|-----------------5-----------5---|-----------------5---------------|
A|-3-----------3-------------------|-3-----------3-----------3-------|
E|---------------------------------|---------------------------------|

G|---------------------------------|---------------------------------|
D|-----------------7-----------7---|---------------------------------|
A|-5-----------5-------------------|-5-------3-------2---------------|
E|---------------------------------|-------------------------5-------|

G|---------------------------------|---------------------------------|
D|---------------------------------|---------------------------------|
A|-----------------5-----------5---|-----------------5---5-----------|
E|-3-----------3-------------------|-3-----------3-----------3-------|

G|---------------------------------|---------------------------------|
D|---------------------------------|---------------------------------|
A|-7-----------7-------------------|-7-----------7-----------7-------|
E|-----------------7---------------|-----------------7---------------|

G|---------------------------------|---------------------------------|
D|-----------------5---------------|---------------------------------|
A|-3-----------3-----------3-------|-5-------------------------------|
E|---------------------------------|---------------------------------|

G|---------------------------------|---------------------------------|
D|---------------------------------|-5-------5-------4-------2-------|
A|-----------------5-----------5---|---------------------------------|
E|-3-----------3-------------------|---------------------------------|

VERSE

G|---------------------------------|---------------------------------|
D|-----------------7---------------|-----------------7---------------|
A|-5-----------5---------------4---|-5-----------5-----------5-------|
E|---------------------------------|---------------------------------|

G|---------------------------------|---------------------------------|
D|-5-----------5-------------------|-5---------------5---5-----------|
A|-----------------5-----------5---|-------------5-----------5-------|
E|---------------------------------|---------------------------------|

G|---------------------------------|---------------------------------|
D|-----------------7---------------|-----------------7---7-----------|
A|-5-----------5---------------4---|-5-----------5-----------5---5---|
E|---------------------------------|---------------------------------|

G|---------------------------------|---------------------------------|
D|-5-------------------------------|-----------------------------4---|
A|---------------------------------|-----5-5-5---5---5---5---7-------|
E|---------------------------------|---------------------------------|

CHORUS

G|---------------------------------|---------------------------------|
D|-5-----------5-------------------|-5-----------5-----------5-------|
A|-----------------5-----------5---|-----------------5---5-----------|
E|---------------------------------|---------------------------------|

G|---------------------------------|---------------------------------|
D|---------------------------------|---------------------------------|
A|-7-----------7-------------------|-7-----------7-----------7-------|
E|-----------------7-----------7---|-----------------7---7-----------|

G|---------------------------------|---------------------------------|
D|-----------------5---------------|-----------------5---------------|
A|-3-----------3-------------------|-3-----------3-----------3-------|
E|---------------------------------|---------------------------------|

G|---------------------------------|-7---7-7-5---5-5-4---4-4---------|
D|-----------------7-----------7---|-------------------------7---7---|
A|-5-----------5-------------------|---------------------------------|
E|---------------------------------|---------------------------------|
[ Tab from: http://www.guitartabs.cc/tabs/b/beatles/keep_your_hands_off_my_baby_btab_ver_2.html ]
G|---------------------------------|---------------------------------|
D|-5-----------5-------------------|-5-----------5-----------5---5---|
A|-----------------5-----------5---|-----------------5---5-----------|
E|---------------------------------|---------------------------------|

G|---------------------------------|---------------------------------|
D|---------------------------------|---------------------------------|
A|-7-----------7-------------------|-7-----------7-----------7-------|
E|-----------------7-----------7---|-----------------7---------------|

G|---------------------------------|---------------------------------|
D|-----------------5---------------|---------------------------------|
A|-3-----------3-----------3-------|-5-------------------------------|
E|---------------------------------|---------------------------------|

G|---------------------------------|---------------------------------|
D|---------------------------------|---------5-------4-------2-------|
A|-----------------5-----------5---|---------------------------------|
E|-3-----------3-------------------|-3-------------------------------|

GUITAR SOLO

G|---------7-----------------------|---------7-----------------------|
D|-----------------7---7-----------|-----------------7---7-----------|
A|-5-----------5---------------4---|-5-----------5-----------5---5---|
E|---------------------------------|---------------------------------|

G|---------------------------------|---------------------------------|
D|-5-------5-----------------------|-5-------5-------5---5-----------|
A|-----------------5---5-------5---|-------------------------5---5---|
E|-------------3-------------------|-------------3-------------------|

G|---------7-----------------------|---------7-----------------------|
D|-----------------7---7-----------|-----------------7---7-----------|
A|-5-----------5---------------4---|-5-----------5-----------5---5---|
E|---------------------------------|---------------------------------|

G|---------------------------------|---------------------------------|
D|-5-------------------------------|-----------------------------4---|
A|---------------------------------|---5-5-------5---5---5---7-------|
E|---------------------------------|---------------------------------|

CHORUS

G|---------------------------------|---------------------------------|
D|-5-----------5-------------------|-5-----------5-----------5---5---|
A|-----------------5-----------5---|-----------------5---5-----------|
E|---------------------------------|---------------------------------|

G|---------------------------------|---------------------------------|
D|---------------------------------|---------------------------------|
A|-7-----------7-------------------|-7-----------7-----------7-------|
E|-----------------7-----------7---|-----------------7---------------|

G|---------------------------------|---------------------------------|
D|-----------------5-----------5---|-----------------5---------------|
A|-3-----------3-------------------|-3-----------3-----------3-------|
E|---------------------------------|---------------------------------|

G|---------------------------------|---------------------------------|
D|-----------------7-------7-------|---------------------------------|
A|-5-----------5---------------4---|-5---5---3---3---2---2-----------|
E|---------------------------------|-------------------------5---5---|

G|---------------------------------|---------------------------------|
D|-5-----------5-------------------|-5-----------5-----------5---5---|
A|-----------------5-----------5---|-----------------5---5-----------|
E|---------------------------------|---------------------------------|

G|---------------------------------|---------------------------------|
D|---------------------------------|---------------------------------|
A|-7-----------7-------------------|-7-----------7-----------7-------|
E|-----------------7-----------7---|-----------------7---7-----------|

G|---------------------------------|---------------------------------|
D|-----------------5---------------|---------------------------------|
A|-3-----------3-----------3-------|-5-------------------------------|
E|---------------------------------|---------------------------------|

G|---------------------------------|---------------------------------|
D|-5-----------5-------------------|-5-------5-------5-------5-------|
A|-----------------5-----------5---|---------------------------------|
E|---------------------------------|---------------------------------|

OUTRO

G|---------------------------------|---------------------------------|
D|---------------------------------|---------------------------------|
A|-7-----------7-------------------|-7-----------7-----------7-------|
E|-----------------7-----------7---|-----------------7---------------|

G|---------------------------------|---------------------------------|
D|-5-----------5-------------------|-5-----------5-----------5-------|
A|-----------------5-----------5---|-----------------5---------------|
E|---------------------------------|---------------------------------|

G|---------------------------------|---------------------------------|
D|---------------------------------|---------------------------------|
A|-7-----------7-------------------|-7-----------7-----------7-------|
E|-----------------7-----------7---|-----------------7---------------|

G|---------------------------------|---------------------------------|
D|-----------------5---------------|---------------------------------|
A|-3-----------3-----------3-------|-5-------------------------------|
E|---------------------------------|---------------------------------|

G|---------------------------------|---------------------------------|
D|-5-----------5-------------------|-5-------------------------------|
A|-----------------5-------5-------|---------------------------------|
E|---------------------------------|---------------------------------|

G|---------------------------------|---------------------------------|
D|-5-------------------------------|---------------------------------|
A|---------------------------------|---------------------------------|
E|---------------------------------|---------------------------------|
Comments