Beatles - Johnny B Goode Chords & Tabs

 

Johnny B Goode Chords & Tabs

Beatles Chords & Tabs

Version: 2 Type: Bass Tab 0 ratings
1 star 2 stars 3 stars 4 stars 5 stars
comments

Johnny B Goode Bass Tab

JOHNNY B. GOODE

By Chuck Berry
From The Beatles Live At The BBC

INTRO

G|---------------------------------|---------------------------------|
D|---------------------------------|---------------------------------|
A|---------------------------------|---------------------------------|
E|---------------------------------|---------------------------------|

G|---------------------------------|---------------------------------|
D|---------------------------------|---------------------------------|
A|---------------------------------|---------------------------------|
E|-5-------------------------------|---------------------------------|

G|---------------------------------|---------------------------------|
D|---------4-------7-------4---7---|---------4-------7-------4---7---|
A|-5-------------------------------|-5-------------------------------|
E|---------------------------------|---------------------------------|

G|---------------------------------|---------------------------------|
D|---------------------------------|---------------------------------|
A|---------4-------7-------4---7---|---------4-------7-------4---7---|
E|-5-------------------------------|-5-------------------------------|

G|---------------------------------|---------------------------------|
D|---------6-------9-------6---9---|---------4-------7-------4---7---|
A|-7-------------------------------|-5-------------------------------|
E|---------------------------------|---------------------------------|

G|---------------------------------|---------------------------------|
D|---------------------------------|---------------------------------|
A|---------4-------7-------4---7---|---------4-------7-------4---7---|
E|-5-------------------------------|-5-------------------------------|

VERSE

G|---------------------------------|---------------------------------|
D|-7-------------------------------|-7-------------------------------|
A|-----------------7---------------|-----------------7---------------|
E|---------------------------------|---------------------------------|

G|---------------------------------|---------------------------------|
D|-7-------------------------------|-7-------------------------------|
A|-----------------7---------------|-----------------7---------------|
E|---------------------------------|---------------------------------|

G|---------------------------------|---------------------------------|
D|---------------------------------|---------------------------------|
A|-5-------------------------------|-5-------------------------------|
E|-----------------5---------------|-----------------5---------------|

G|---------------------------------|---------------------------------|
D|-7-------------------------------|-7-------------------------------|
A|-----------------7---------------|-----------------7---------------|
E|---------------------------------|---------------------------------|

G|---------------------------------|---------------------------------|
D|-----------------9---------------|-----------------9---------------|
A|-7-------------------------------|-7-------------------------------|
E|---------------------------------|---------------------------------|

G|---------------------------------|---------------------------------|
D|-7-------------------------------|-7-------------------------------|
A|-----------------7---------------|-----------------7---------------|
E|---------------------------------|---------------------------------|

CHORUS

G|---------------------------------|---------------------------------|
D|-------------------------4-------|-7-------4-----------------------|
A|---------4-------7---------------|-----------------7-------4-------|
E|-5-------------------------------|---------------------------------|

G|---------------------------------|---------------------------------|
D|-------------------------4-------|-7-------4-----------------------|
A|---------4-------7---------------|-----------------7-------4-------|
E|-5-------------------------------|---------------------------------|

G|-------------------------4-------|-7-------4-----------------------|
D|---------4-------7---------------|-----------------7-------4-------|
A|-5-------------------------------|---------------------------------|
E|---------------------------------|---------------------------------|

G|---------------------------------|---------------------------------|
D|-------------------------4-------|-7-------4-----------------------|
A|---------4-------7---------------|-----------------7-------4-------|
E|-5-------------------------------|---------------------------------|

G|---------------------------------|---------------------------------|
D|---------6-------9-------6-------|---------6-------9-------6-------|
A|-7-------------------------------|-7-------------------------------|
E|---------------------------------|---------------------------------|

G|---------------------------------|---------------------------------|
D|---------------------------------|---------------------------------|
A|---------4-------7-------4-------|---------------------------------|
E|-5-------------------------------|-5-------5-------5-------5-------|

VERSE

G|---------------------------------|---------------------------------|
D|-7-------------------------------|-7-------------------------------|
A|-----------------7---------------|-----------------7---------------|
E|---------------------------------|---------------------------------|

G|---------------------------------|---------------------------------|
D|-7-------------------------------|-7-------------------------------|
A|-----------------7---------------|-----------------7---------------|
E|---------------------------------|---------------------------------|

G|---------------------------------|---------------------------------|
D|---------------------------------|---------------------------------|
A|-5-------------------------------|-5-------------------------------|
E|-----------------5---------------|-----------------5---------------|

G|---------------------------------|---------------------------------|
D|-7-------------------------------|-7-------------------------------|
A|-----------------7---------------|-----------------7---------------|
E|---------------------------------|---------------------------------|

G|---------------------------------|---------------------------------|
D|-----------------9---------------|-----------------9---------------|
A|-7-------------------------------|-7-------------------------------|
E|---------------------------------|---------------------------------|

G|---------------------------------|---------------------------------|
D|-7-------------------------------|-7-------------------------------|
A|-----------------7---------------|-----------------7---------------|
E|---------------------------------|---------------------------------|

CHORUS

G|---------------------------------|---------------------------------|
D|-------------------------4-------|-7-------4-----------------------|
A|---------4-------7---------------|-----------------7-------4-------|
E|-5-------------------------------|---------------------------------|

G|---------------------------------|---------------------------------|
D|-------------------------4-------|-7-------4-----------------------|
A|---------4-------7---------------|-----------------7-------4-------|
E|-5-------------------------------|---------------------------------|
[ Tab from: http://www.guitartabs.cc/tabs/b/beatles/johnny_b_goode_btab_ver_2.html ]
G|-------------------------4-------|-7-------4-----------------------|
D|---------4-------7---------------|-----------------7-------4-------|
A|-5-------------------------------|---------------------------------|
E|---------------------------------|---------------------------------|

G|---------------------------------|---------------------------------|
D|-------------------------4-------|-7-------4-----------------------|
A|---------4-------7---------------|-----------------7-------4-------|
E|-5-------------------------------|---------------------------------|

G|---------------------------------|---------------------------------|
D|---------6-------9-------6-------|---------6-------9-------6-------|
A|-7-------------------------------|-7-------------------------------|
E|---------------------------------|---------------------------------|

G|---------6-------7-------9-------|---------------------------------|
D|-7-------------------------------|-7-------7-------7-------7-------|
A|---------------------------------|---------------------------------|
E|---------------------------------|---------------------------------|

GUITAR SOLO

G|---------------------------------|-7-------------------------------|
D|-7-------------------------------|---------------------------------|
A|---------------------------------|---------------------------------|
E|---------------------------------|---------------------------------|

G|---------------------------------|---------------------------------|
D|-7-------7-------7-------7-------|-7-------7-------7-------7-------|
A|---------------------------------|---------------------------------|
E|---------------------------------|---------------------------------|

G|---------------------------------|---------------------------------|
D|---------4-------7-------4---7---|---------4-------7-------4---7---|
A|-5-------------------------------|-5-------------------------------|
E|---------------------------------|---------------------------------|

G|---------------------------------|---------------------------------|
D|---------------------------------|---------------------------------|
A|---------4-------7-------4---7---|---------4-------7-------4---7---|
E|-5-------------------------------|-5-------------------------------|

G|---------------------------------|---------------------------------|
D|---------6-------9-------6-------|---------6-------9-------6-------|
A|-7-------------------------------|-7-------------------------------|
E|---------------------------------|---------------------------------|

G|---------------------------------|---------------------------------|
D|---------------------------------|---------------------------------|
A|---------4-------5-------7-------|-7-------7-------7-------7-------|
E|-5-------------------------------|---------------------------------|

G|---------------------------------|-7-------------------------------|
D|-7-------------------------------|---------------------------------|
A|---------------------------------|---------------------------------|
E|---------------------------------|---------------------------------|

G|---------------------------------|---------------------------------|
D|-7-------7-------7-------7-------|-7-------7-------7-------7-------|
A|---------------------------------|---------------------------------|
E|---------------------------------|---------------------------------|

G|---------------------------------|---------------------------------|
D|---------4-------7-------4---7---|---------4-------7-------4---7---|
A|-5-------------------------------|-5-------------------------------|
E|---------------------------------|---------------------------------|

G|---------------------------------|---------------------------------|
D|---------------------------------|---------------------------------|
A|---------4-------7-------4---7---|---------4-------7-------4---7---|
E|-5-------------------------------|-5-------------------------------|

G|---------------------------------|---------------------------------|
D|---------6-------9-------6-------|---------6-------9-------6-------|
A|-7-------------------------------|-7-------------------------------|
E|---------------------------------|---------------------------------|

G|---------------------------------|---------------------------------|
D|---------------------------------|---------------------------------|
A|---------4-------5-------7-------|---------------------------------|
E|-5-------------------------------|-5-------5-------5-------5-------|

VERSE

G|---------------------------------|---------------------------------|
D|-7-------------------------------|-7-------------------------------|
A|-----------------7---------------|-----------------7---------------|
E|---------------------------------|---------------------------------|

G|---------------------------------|---------------------------------|
D|-7-------------------------------|-7-------------------------------|
A|-----------------7---------------|-----------------7---------------|
E|---------------------------------|---------------------------------|

G|---------------------------------|---------------------------------|
D|---------------------------------|---------------------------------|
A|-5-------------------------------|-5-------------------------------|
E|-----------------5---------------|-----------------5---------------|

G|---------------------------------|---------------------------------|
D|-7-------------------------------|-7-------------------------------|
A|-----------------7---------------|-----------------7---------------|
E|---------------------------------|---------------------------------|

G|---------------------------------|---------------------------------|
D|-----------------9---------------|-----------------9---------------|
A|-7-------------------------------|-7-------------------------------|
E|---------------------------------|---------------------------------|

G|---------------------------------|---------------------------------|
D|-7-------------------------------|-7-------------------------------|
A|-----------------7---------------|-----------------7---------------|
E|---------------------------------|---------------------------------|

CHORUS

G|---------------------------------|---------------------------------|
D|-------------------------4-------|-7-------4-----------------------|
A|---------4-------7---------------|-----------------7-------4-------|
E|-5-------------------------------|---------------------------------|

G|---------------------------------|---------------------------------|
D|-------------------------4-------|-7-------4-----------------------|
A|---------4-------7---------------|-----------------7-------4-------|
E|-5-------------------------------|---------------------------------|

G|-------------------------4-------|-7-------4-----------------------|
D|---------4-------7---------------|-----------------7-------4-------|
A|-5-------------------------------|---------------------------------|
E|---------------------------------|---------------------------------|

G|---------------------------------|---------------------------------|
D|-------------------------4-------|-------------------------4-------|
A|---------4-------7-----------7---|---------4-------7-----------7---|
E|-5-------------------------------|-5-------------------------------|

G|-------------------------6-------|---------------------------------|
D|---------6-------9-----------9---|---------6-------7-------9-------|
A|-7-------------------------------|-7-------------------------------|
E|---------------------------------|---------------------------------|

G|---------------------------------|---------------------------------|
D|---------------------------------|-------------7-------------------|
A|---------4-------5-------7-------|-----4---7-----------------------|
E|-5-------------------------------|-5-------------------5-----------|
Comments