Beatles - Ive Got A Feeling Chords & Tabs

 

Ive Got A Feeling Chords & Tabs

Beatles Chords & Tabs

Version: 4 Type: Bass Tab 0 ratings
1 star 2 stars 3 stars 4 stars 5 stars
comments

Ive Got A Feeling Bass Tab

IíVE GOT A FEELING

Written by Paul McCartney & John Lennon

INTRO

  00:00

G|---------------------------------|---------------------------------|
D|---------------------------------|---------------------------------|
A|---------------------------------|---------------------------------|
E|---------------------------------|---------------------------------|

VERSE

  00:05

G|---------------------------------|---------------------------------|
D|---------------------------------|---------------------------------|
A|---------------------------------|---------------------------------|
E|---------------------------------|---------------------------------|

G|---------------------------------|---------------------------------|
D|---------------------------------|---------------------------------|
A|---------------------------------|---------------------------------|
E|---------------------------------|---------------------------------|

G|---------------------------------|---------------------------------|
D|---------------------------------|---------------------------------|
A|---------------------------------|---------------------------------|
E|---------------------------------|---------------------------------|

G|---------------------------------|---------------------------------|
D|---------------------------------|---------------------------------|
A|---------------------------------|---------------------------------|
E|---------------------------------|---------------------------------|

  00:29

G|---------------------------------|---------------------------------|
D|-7-------7-------7-------7-------|---------5-----------------------|
A|---------------------------------|-7---------------5---------------|
E|---------------------------------|---------------------------------|

G|---------------------------------|---------------------------------|
D|-7---------------------5---7-5-7-|-----7-------7-------5-7---5-7---|
A|-----------------5-7-------------|-0-------------7-5-7-------------|
E|---------------------------------|---------------------------------|

VERSE

  00:40

G|---------------------------------|---------------------------------|
D|-----7-------7---7---7-------7---|-7---7-------7---7---7-------7---|
A|-0-------------------------------|---------------------------------|
E|---------------------------------|---------------------------------|

G|---------------------------------|---------------------------------|
D|-7---7-------7-------7-------7---|-----7-------7-------5-7---5-7---|
A|-----------------0---------------|-0---------------5-7-------------|
E|---------------------------------|---------------------------------|

G|---------------------------------|---------------------------------|
D|-----7-------7-------7-------7---|-----7-------7-------7-------7---|
A|-0---------------0---------------|-0---------------0---------------|
E|---------------------------------|---------------------------------|

G|---------------------------------|---------------------------------|
D|-----7-------7-------5-7-----7---|-----7-------7-------5-7---5-7---|
A|-0---------------5-7-------------|-0---------------5-7-------------|
E|---------------------------------|---------------------------------|

G|---------------------------------|---------------------------------|
D|-----7-------7-------7-------7---|---------5-----------------------|
A|-0-------0-------0-------0-------|-7---------------5---------------|
E|---------------------------------|---------------------------------|

G|---------------------------------|---------------------------------|
D|-----7-------7-------5-7---5-7---|-----7-------7-------5-7---5-7/--|
A|-0---------------5-7-------------|-0---------------5-7-------------|
E|---------------------------------|---------------------------------|

BRIDGE

  01:15

G|---------------------------------|---------------------------------|
D|---------------------------------|---------------------------------|
A|-----------------2---2-------2---|---------2---2---5---5---2-------|
E|-0---0---4---4-----------4-------|-3---3-----------------------3---|

G|---------------------------------|---------------------------------|
D|---------4---4---5---5---6-------|-7-------------------------------|
A|-5---5-----------------------5---|---------------------------------|
E|---------------------------------|---------------------------------|

G|---------------------------------|
D|---------------------------------|
A|---------------------------------|
E|---------------------------------|

VERSE

  01:29

G|---------------------------------|---------------------------------|
D|-------------7---------------7---|-----7-------7-------7-------7---|
A|-0-------------------0-----------|-0-------0-------0-------0-------|
E|---------------------------------|---------------------------------|

G|---------------------------------|---------------------------------|
D|-----7-------7-------7-------7---|-7---7---------------5-7---5-7---|
A|-0-------0-------0-------0-------|-------------0---5-7-------------|
E|---------------------------------|---------------------------------|
[ Tab from: http://www.guitartabs.cc/tabs/b/beatles/ive_got_a_feeling_btab_ver_4.html ]
G|---------------------------------|---------------------------------|
D|-----7-------7-------7-------7---|-----7-------7-------7-------7---|
A|-0---------------0---------------|-0---------------0---------------|
E|---------------------------------|---------------------------------|

G|---------------------------------|---------------------------------|
D|-----7-------7-------5-7---5-7---|-----7-------7-------5-7---5-7---|
A|-0---------------5-7-------------|-0---------------5-7-------------|
E|---------------------------------|---------------------------------|

G|---------------------------------|---------------------------------|
D|-----7---7-------7---7---7---7---|---------5-----------------------|
A|-0-------------------------------|-7---------------5---------------|
E|---------------------------------|---------------------------------|

G|---------------------------------|---------------------------------|
D|-7-------------------5-7---5-7---|-----7-------7-------5-7---5-7---|
A|-----------------5-7-------------|-0---------------5-7-------------|
E|---------------------------------|---------------------------------|

VERSE

  02:04

G|-----6---------------------------|---------------------------------|
D|-------------7-------5-7---5-7---|-----7-------7-------5-7---5-7---|
A|-0---------------5-7-------------|-0---------------5-7-------------|
E|---------------------------------|---------------------------------|

G|-----6---------------------------|-----6---------------------------|
D|---------7-----------5-7---5-7---|---------7-----------5-7---5-7---|
A|-0-----------0---5-7-------------|-0-----------0---5-7-------------|
E|---------------------------------|---------------------------------|

G|-----6---------------------------|-----6---------------------------|
D|---------7-----------5-7---5-7---|---------7-----------5-7---5-7---|
A|-0-----------0---5-7-------------|-0-----------0---5-7-------------|
E|---------------------------------|---------------------------------|

  02:21

G|---------------------------------|-----6---------------------------|
D|---------------------5-7---5-7---|---------7-----------5-7---5-7---|
A|-0-------0-------5-7-------------|-0-----------0---5-7-------------|
E|---------------------------------|---------------------------------|

G|-----6---------------------------|-----6---------------------------|
D|---------7-----------5-7---5-7---|---------7-----------5-7---5-7---|
A|-0-----------0---5-7-------------|-0-----------0---5-7-------------|
E|---------------------------------|---------------------------------|

G|---------------------------------|---------------------------------|
D|-----7-------7-------7-------7---|-----7-------7-------7-------7---|
A|-0-------0-------0-------0-------|-0-------0-------0-------0-------|
E|---------------------------------|---------------------------------|

G|---------------------------------|---------------------------------|
D|-7-------------------------------|---------------------------------|
A|---------------------------------|---------------------------------|
E|---------------------------------|---------------------------------|

VERSE

  02:44

G|---------------------------------|---------------------------------|
D|-7---7-------7---7---7-----------|-7---7-------7-------7-------7---|
A|-----------------------------0---|-----------------0---------------|
E|---------------------------------|---------------------------------|

G|---------------------------------|---------------------------------|
D|-----7-------7-------5-7---5-7---|-----7-------7-------5-7---5-7---|
A|-0---------------5-7-------------|-0---------------5-7-------------|
E|---------------------------------|---------------------------------|

G|---------------------------------|---------------------------------|
D|-----7-------7---7---7-------7---|-7---7-------7-------7-------7---|
A|-0-------------------------------|-----------------0---------------|
E|---------------------------------|---------------------------------|

G|---------------------------------|---------------------------------|
D|-----7-------7-------5-----------|-----7-------7-------5-7---5-7---|
A|-0---------------5-7-------------|-0---------------5-7-------------|
E|---------------------------------|---------------------------------|

OUTRO

  03:07

G|---------------------------------|---------------------------------|
D|-----7-----7---------7-------7---|-----7-------7-------7------/7---|
A|-0-------0-------0-------0-------|-0-------0-------0-------0-------|
E|---------------------------------|---------------------------------|

G|-9-------------------------------|---------------------------------|
D|-----7------/7-------7-------7---|-----7-------7-------7-------7---|
A|---------0-------0-------0-------|-0-------0-------0-------0-------|
E|---------------------------------|---------------------------------|

G|---------------------------------|---------------------------------|
D|-----7-------7-------7-------7---|-7---7---7---7-------7-------7---|
A|-0-------0-------0-------0-------|-----------------0-------0-------|
E|---------------------------------|---------------------------------|

G|---------------------------------|---------------------------------|
D|-7-------------------------------|---------------------------------|
A|---------------------------------|---------------------------------|
E|---------------------------------|---------------------------------|
Comments