Beatles - Its Only Love Chords & Tabs

 

Its Only Love Chords & Tabs

Beatles Chords & Tabs

Version: 2 Type: Tab 0 ratings
1 star 2 stars 3 stars 4 stars 5 stars
comments

Its Only Love Tab

   
------------------------------------------------------------------
  THE BEATLES - IT'S ONLY LOVE (Lennon/McCartney) From HELP album.
                Released on August 6th 1965.
------------------------------------------------------------------
  Tabbed by:PJVillanueva


C   Am   C   Am

C     Em        Bb    F      G     Gaug5
I get high when I see you go by
My oh my.
C        Em        Bb    F        G     Gaug5
When you sigh, my, my inside just flies,
Butterflies
F           G              C        Am
Why am I so shy when I'm beside you?
          Bb                 G
It's only love and that is all,
               C               Am
Why should I feel the way I do?
          Bb                  G
It's only love, and that is all,
            F           G
But it's so hard loving you.

C     Em         Bb      F        G      Gaug5
Is it right that you and I should fight
Ev'ry night?
C        Em       Bb        F         G      Gaug5
Just the sight of you makes nighttime bright,
Very bright.
F               G              C         Am
Haven't I the right to make it up girl?
          Bb                G
It's only love and that is all,
             C                Am
Why should I feel the way I do?
          Bb                  G
It's only love, and that is all
            F             G
But it's so hard loving you
            F              G             
Yes it's so hard loving you 
          C    Am   C   Am   C   Am   C 
loving you.




Use a capo on the fifth fret.


e|------- ------- ------- -------|------- ------- ------- -------|
B|0---0-0-0---0---0-0-0---0---0--|0---0-0-0---0---0-0-0---0---0--|
G|0---0-0-0---0---0-0-0---0---0--|0---0-0-0---0---0-0-0---0---0--|
D|0---0-0-0---0---0-0-0---0---0--|2---2-2-2---2---2-2-2---2---2--|
A|2---2-2-2---2---2-2-2---2---2--|2---2-2-2---2---2-2-2---2---2--|
E|3---3-3-3---3---3-3-3---3---3--|0---0-0-0---0---0-0-0---0---0--|

e|------- ------- ------- -------|------- ------- ------- -------|
B|-------------------------------|-------------------------------|
G|0-----------0---0---0-------0--|-------------------------------|
D|5-----------4---2---0-------2--|-------------------------------|
A|5-----------5---5---5-------2--|-------------------------------|
E|-------------------------------|-------------------------------|



  
e|------- ------- ------- -------|------- ------- ------- -------|
B|0---0-0-0---0---0-0-0---0---0--|0---0-0-0---0---0-0-0---0---0--|
G|0---0-0-0---0---0-0-0---0---0--|0---0-0-0---0---0-0-0---0---0--|
D|0---0-0-0---0---0-0-0---0---0--|2---2-2-2---2---2-2-2---2---2--|
A|2---2-2-2---2---2-2-2---2---2--|2---2-2-2---2---2-2-2---2---2--|
E|3---3-3-3---3---3-3-3---3---3--|0---0-0-0---0---0-0-0---0---0--|

e|------- ------- ------- -------|------- ------- ------- -------|
B|-------------------------------|-------------------------------|
G|0-----------0---0---0-------0--|-------------------------------|
D|5-----------4---2---0-------2--|-------------------------------|
A|5-----------5---5---5-------2--|-------------------------------|
E|-------------------------------|-------------------------------|



 
e|------- ------- 2------ 2------|1---1-1 1---1-- 0------ 0------|
B|0---0-0-0---0---3-------3------|1---1-1-1---1---1-------1------|
G|0---0-0-0---0---4-------4------|2---2-2-2---2---2-------2------|
D|0---0-0-0---0---4-------4------|3---3-3-3---3---2-------2------|
A|2---2-2-2---2---2-------2------|3---3-3-3---3---0-------0------|
E|3---3-3-3---3------------------|1---1-1-1---1------------------|
  I       get     high    when    I       see     you     go 
e|------- 3------ ----2-- ----2--|------- 1------ ----0-- ----0--|
B|--------3-----------3-------3--|--------1-----------1-------1--|
G|--------4-----------4-------4--|--------2-----------2-------2--|
D|-------------------------------|-------------------------------|
A|-------------------------------|-------------------------------|
E|-------------------------------|-------------------------------|



  
e|2---2-2 2---2-- 0------ 2------|2---2-2 2---2-- 0------ 2------|
B|3---3-3-3---3---3-------3------|3---3-3-3---3---3-------3------|
G|2---2-2-2---2---2-------2------|3---3-3-3---3---3-------3------|
D|0---0-0-0---0---0-------0------|4---4-4-4---4---4-------4------|
A|-------------------------------|-------------------------------|
E|-------------------------------|-------------------------------|
  by                                      My  oh  my
e|------- 2------ ----0-- ----2--|------- 2------ ----0-- ----2--|
B|--------3-----------3-------3--|--------3-----------3-------3--|
G|--------2-----------2-------2--|--------3-----------3-------3--|
D|-------------------------------|-------------------------------|
A|-------------------------------|-------------------------------|
E|-------------------------------|-------------------------------|

e|------- ------- ------- -------|------- ------- ------- -------|
B|-------------------------------|-------------------------------|
G|-------------------------------|-------------------------------|
D|5-----------4B5R4--------------|-------------------------------|
A|-------------------------------|-------------------------------|
E|-------------------------------|-------------------------------|



 
e|------- ------- 2------ 2------|1-----1 1---1-- 0------ 0---0--|
B|0-----0-0---0---3-------3------|1-----1-1---1---1-------1---1--|
G|0-----0-0---0---4-------4------|2-----2-2---2---2-------2---2--|
D|0-----0-0---0---4-------4------|3-----3-3---3---2-------2---2--|
A|2-----2-2---2---2-------2------|3-----3-3---3---0-------0---0--|
E|3-----3-3---3------------------|1-----1-1---1------------------|
  When    you     sigh    My      my      in......side    just
e|------- 3------ ----2-- ----2--|------- 1------ ----0-- ----0--|
B|--------3-----------3-------3--|--------1-----------1-------1--|
G|--------4-----------4-------4--|--------2-----------2-------2--|
D|-------------------------------|-------------------------------|
A|-------------------------------|-------------------------------|
E|-------------------------------|-------------------------------|



                 
e|2---2-2 2---2-- 0------ 2---0--|2---2-2 2---2-- 0------ 2---2--|
B|3---3-3-3---3---3-------3---3--|3---3-3-3---3---3-------3---3--|
G|2---2-2-2---2---2-------2---2--|3---3-3-3---3---3-------3---3--|
D|0---0-0-0---0---0-------0---0--|4---4-4-4---4---4-------4---4--|
A|-------------------------------|-------------------------------|
E|-------------------------------|-------------------------------|
  flies                                   butterflies
e|------- 2------ ----0-- ----2--|------- 2------ ----0-- ----2--|
B|--------3-----------3-------3--|--------3-----------3-------3--|
G|--------2-----------2-------2--|--------3-----------3-------3--|
D|-------------------------------|-------------------------------|
A|-------------------------------|-------------------------------|
E|-------------------------------|-------------------------------|

e|------- ------- ------- -------|------- ------- ------- -------|
B|-------------------------------|-------------------------------|
G|-------------------------------|-------------------------------|
D|5-----------4B5R4--------------|-------------------------------|
A|-------------------------------|-------------------------------|
E|-------------------------------|-------------------------------|



 
e|3-----3 3---3-- 3---3-- 3---3--|2-----2 2---2-- 2---2-- 2---2--|
B|1-----1-1---1---1---1---1---1--|3-----3-3---3---3---3---3---3--|
G|0-----0-0---0---0---0---0---0--|2-----2-2---2---2---2---2---2--|
D|2-----2-2---2---2---2---2---2--|0-----0-0---0---0---0---0---0--|
A|3-----3-3---3---3---3---3---3--|-------------------------------|
E|-------------------------------|-------------------------------|
  Why         am  I       so  shy                 when I'm    be..
e|------- 0------ ----0-- ----0--|------- 2------ ----2-- ----2--|
B|--------1-----------1-------1--|--------3-----------3-------3--|
G|--------0-----------0-------0--|--------2-----------2-------2--|
D|-------------------------------|-------------------------------|
A|-------------------------------|-------------------------------|
E|-------------------------------|-------------------------------|



  
e|3-----3 3---3-- 3---3-- 3---3--|0-----0 0---0-- 0---0-- 0---0--|
B|3-----3-3---3---3---3---3---3--|0-----0-0---0---0---0---0---0--|
G|0-----0-0---0---0---0---0---0--|0-----0-0---0---0---0---0---0--|
D|0-----0-0---0---0---0---0---0--|2-----2-2---2---2---2---2---2--|
A|2-----2-2---2---2---2---2---2--|2-----2-2---2---2---2---2---2--|
E|3-----3-3---3---3---3---3---3--|0-----0-0---0---0---0---0---0--|
  side            you                             It's  on....ly
e|------- 3------ ----3-- ----3--|------- 0------ ----0-- ----0--|
B|--------3-----------3-------3--|--------0-----------0-------0--|
G|--------4-----------4-------4--|--------0-----------0-------0--|
D|-------------------------------|-------------------------------|
A|-------------------------------|-------------------------------|
E|-------------------------------|-------------------------------|

e|------- ------- ------- -------|------- ------- ------- -------|
B|-------------------------------|-------------------------------|
G|0-----------0---0---0-------0--|-------------------------------|
D|5-----------4---2---0-------2--|-------------------------------|
A|5-----------5---5---5-------2--|-------------------------------|
E|-------------------------------|-------------------------------|



 
e|1-----1 1---1-- 1---1-- 1---1--|2---2-2 2---2-- 2---2-- 2---2--|
B|1-----1-1---1---1---1---1---1--|3---3-3-3---3---3---3---3---3--|
G|2-----2-2---2---2---2---2---2--|2---2-2-2---2---2---2---2---2--|
D|3-----3-3---3---3---3---3---3--|0---0-0-0---0---0---0---0---0--|
A|3-----3-3---3---3---3---3---3--|-------------------------------|
E|1-----1-1---1---1---1---1---1--|-------------------------------|
  love        and that is     all                 Why  should I feel



  
e|3-----3 3---3-- 3---3-- 3---3--|0-----0 0---0-- 0---0-- 0---0--|
B|3-----3-3---3---3---3---3---3--|0-----0-0---0---0---0---0---0--|
G|0-----0-0---0---0---0---0---0--|0-----0-0---0---0---0---0---0--|
D|0-----0-0---0---0---0---0---0--|2-----2-2---2---2---2---2---2--|
A|2-----2-2---2---2---2---2---2--|2-----2-2---2---2---2---2---2--|
E|3-----3-3---3---3---3---3---3--|0-----0-0---0---0---0---0---0--|
              the way I       do                  It's on.....ly 
e|------- ------- ------- -------|------- ------- ------- -------|
B|-------------------------------|-------------------------------|
G|0-----------0---0---0-------0--|-------------------------------|
D|5-----------4---2---0-------2--|-------------------------------|
A|5-----------5---5---5-------2--|-------------------------------|
E|-------------------------------|-------------------------------|



  
e|1-----1 1---1-- 1---1-- 1---1--|2---2-2 2---2-- 2---2-- 2---2--|
B|1-----1-1---1---1---1---1---1--|3---3-3-3---3---3---3---3---3--|
G|2-----2-2---2---2---2---2---2--|2---2-2-2---2---2---2---2---2--|
D|3-----3-3---3---3---3---3---3--|0---0-0-0---0---0---0---0---0--|
A|3-----3-3---3---3---3---3---3--|-------------------------------|
E|1-----1-1---1---1---1---1---1--|-------------------------------|
  love        and that is     all                 But it's    so 



  
e|3-----3 3---3-- 3---3-- 3---3--|2-----2 2---2-- 2---2-- 2---2--|
B|1-----1-1---1---1---1---1---1--|3-----3-3---3---3---3---3---3--|
G|0-----0-0---0---0---0---0---0--|2-----2-2---2---2---2---2---2--|
D|2-----2-2---2---2---2---2---2--|0-----0-0---0---0---0---0---0--|
A|3-----3-3---3---3---3---3---3--|-------------------------------|
E|-------------------------------|-------------------------------|     
  hard                    loving you


[ Tab from: http://www.guitartabs.cc/tabs/b/beatles/its_only_love_tab_ver_2.html ]
  
e|------- ------- 2------ 2------|1---1-1 1---1-- 0------ 0------|
B|0-----0-0---0---3-------3------|1---1-1-1---1---1-------1------|
G|0-----0-0---0---4-------4------|2---2-2-2---2---2-------2------|
D|0-----0-0---0---4-------4------|3---3-3-3---3---2-------2------|
A|2-----2-2---2---2-------2------|3---3-3-3---3---0-------0------|
E|3-----3-3---3------------------|1---1-1-1---1------------------|
  Is      it      right   that    you     and     I       should
e|------- 3------ ----2-- ----2--|------- 1------ ----0-- ----0--|
B|--------3-----------3-------3--|--------1-----------1-------1--|
G|--------4-----------4-------4--|--------2-----------2-------2--|
D|-------------------------------|-------------------------------|
A|-------------------------------|-------------------------------|
E|-------------------------------|-------------------------------|



  
e|2---2-2 2---2-- 0------ 2------|2---2-2 2---2-- 0------ 2------|
B|3---3-3-3---3---3-------3------|3---3-3-3---3---3-------3------|
G|2---2-2-2---2---2-------2------|3---3-3-3---3---3-------3------|
D|0---0-0-0---0---0-------0------|4---4-4-4---4---4-------4------|
A|-------------------------------|-------------------------------|
E|-------------------------------|-------------------------------|
  fight                                   ev'ry   night
e|------- 2------ ----0-- ----2--|------- 2------ ----0-- ----2--|
B|--------3-----------3-------3--|--------3-----------3-------3--|
G|--------2-----------2-------2--|--------3-----------3-------3--|
D|-------------------------------|-------------------------------|
A|-------------------------------|-------------------------------|
E|-------------------------------|-------------------------------|

e|------- ------- ------- -------|------- ------- ------- -------|
B|-------------------------------|-------------------------------|
G|-------------------------------|3------------------------------|
D|5-----------4B5R4--------------|------------------------4------|
A|-------------------------------|-------------------------------|
E|-------------------------------|-------------------------------|



  
e|------- ------- 2------ 2------|1-----1 1---0-- 0------ 0------|
B|0-----0-0-------3-------3------|1-----1-1---1---1-------1------|
G|0-----0-0-------4-------4------|2-----2-2---2---2-------2------|
D|0-----0-0-------4-------4------|3-----3-3---2---2-------2------|
A|2-----2-2-------2-------2------|3-----3-3---0---0-------0------|
E|3-----3-3----------------------|1-----1-1----------------------|
  Just    the     sight   of      you     makes   night   time
e|------- 3------ ----2-- ----2--|------- 1------ ----0-- ----0--|
B|--------3-----------3-------3--|--------1-----------1-------1--|
G|--------4-----------4-------4--|--------2-----------2-------2--|
D|-------------------------------|-------------------------------|
A|-------------------------------|-------------------------------|
E|-------------------------------|-------------------------------|



 
e|2---2-2 2---2-- 0------ 2---2--|----2-- ----2-- 0---0-- ----2--|
B|3---3-3-3---3---3-------3---3--|----3-------3---3---3-------3--|
G|2---2-2-2---2---2-------2---2--|----3-------3---3---3-------3--|
D|0---0-0-0---0---0-------0---0--|----4-------4---4---4-------4--|
A|-------------------------------|-------------------------------|
E|-------------------------------|-------------------------------|
  bright                                  very bright
e|------- 2------ ----0-- ----2--|------- 2------ ----0-- ----2--|
B|--------3-----------3-------3--|--------3-----------3-------3--|
G|--------2-----------2-------2--|--------3-----------3-------3--|
D|-------------------------------|-------------------------------|
A|-------------------------------|-------------------------------|
E|-------------------------------|-------------------------------|

e|------- ------- ------- -------|------- ------- ------- -------|
B|-------------------------------|-------------------------------|
G|----------------------------3--|----3-------------------2------|
D|4-----------5-R-4--------------|----------------4--------------|
A|-------------------------------|-------------------------------|
E|-------------------------------|-------------------------------|



  
e|3-----3 3---3-- 3---3-- 3---3--|2-----2 2---2-- 2---2-- 2---2--|
B|1-----1-1---1---1---1---1---1--|3-----3-3---3---3---3---3---3--|
G|0-----0-0---0---0---0---0---0--|2-----2-2---2---2---2---2---2--|
D|2-----2-2---2---2---2---2---2--|0-----0-0---0---0---0---0---0--|
A|3-----3-3---3---3---3---3---3--|-------------------------------|
E|-------------------------------|-------------------------------|
  Haven't     I           the right               to  make    it     
e|------- 0------ ----0-- ----0--|------- 2------ ----2-- ----3--|
B|--------1-----------1-------1--|--------3-----------3-------3--|
G|--------0-----------0-------0--|--------2-----------2-------4--|
D|-------------------------------|-------------------------------|
A|-------------------------------|-------------------------------|
E|-------------------------------|-------------------------------|



  
e|3-----3 3---3-- 3---3-- 3---3--|0-----0 0---0-- 0---0-- 0---0--|
B|3-----3-3---3---3---3---3---3--|0-----0-0---0---0---0---0---0--|
G|0-----0-0---0---0---0---0---0--|0-----0-0---0---0---0---0---0--|
D|0-----0-0---0---0---0---0---0--|2-----2-2---2---2---2---2---2--|
A|2-----2-2---2---2---2---2---2--|2-----2-2---2---2---2---2---2--|
E|3-----3-3---3---3---3---3---3--|0-----0-0---0---0---0---0---0--|
  up girl                                         It's on.....ly
e|------- 3------ ----3-- ----3--|------- 0------ ----0-- ----0--|
B|--------3-----------3-------3--|--------0-----------0-------0--|
G|--------4-----------4-------4--|--------0-----------0-------0--|
D|-------------------------------|-------------------------------|
A|-------------------------------|-------------------------------|
E|-------------------------------|-------------------------------|

e|------- ------- ------- -------|------- ------- ------- -------|
B|-------------------------------|-------------------------------|
G|0-----------0---0---0-------0--|-------------------------------|
D|5-----------4---2---0-------2--|-------------------------------|
A|5-----------5---5---5-------2--|-------------------------------|
E|-------------------------------|-------------------------------|



  
e|1-----1 1---1-- 1---1-- 1---1--|2-----2 2---2-- 2---2-- 2---2--|
B|1-----1-1---1---1---1---1---1--|3-----3-3---3---3---3---3---3--|
G|2-----2-2---2---2---2---2---2--|2-----2-2---2---2---2---2---2--|
D|3-----3-3---3---3---3---3---3--|0-----0-0---0---0---0---0---0--|
A|3-----3-3---3---3---3---3---3--|-------------------------------|
E|1-----1-1---1---1---1---1---1--|-------------------------------|
  love        and that is     all                 Why should I feel


  
e|3-----3 3---3-- 3---3-- 3---0--|0-----0 0---0-- 0---0-- 0---0--|
B|3-----3-3---3---3---3---3---0--|0-----0-0---0---0---0---0---0--|
G|0-----0-0---0---0---0---0---0--|0-----0-0---0---0---0---0---0--|
D|0-----0-0---0---0---0---0---2--|2-----2-2---2---2---2---2---2--|
A|2-----2-2---2---2---2---2---2--|2-----2-2---2---2---2---2---2--|
E|3-----3-3---3---3---3---3---0--|0-----0-0---0---0---0---0---0--|
              the way I       do                  It's on.....ly
e|------- ------- ------- -------|------- ------- ------- -------|
B|-------------------------------|-------------------------------|
G|0-----------0---0---0-------0--|-------------------------------|
D|5-----------4---2---0-------2--|-------------------------------|
A|5-----------5---5---5-------2--|-------------------------------|
E|-------------------------------|-------------------------------|



  
e|1-----1 1---1-- 1---1-- 1---1--|2---2-2 2---2-- 2---2-- 2---3--|
B|1-----1-1---1---1---1---1---1--|3---3-3-3---3---3---3---3---1--|
G|2-----2-2---2---2---2---2---2--|2---2-2-2---2---2---2---2---0--|
D|3-----3-3---3---3---3---3---3--|0---0-0-0---0---0---0---0---2--|
A|3-----3-3---3---3---3---3---3--|----------------------------3--|
E|1-----1-1---1---1---1---1---1--|-------------------------------|
  love        and that is     all                 But  it's   so


                              
e|3-----3 3---3-- 3---3-- 3---3--|2-----2 2---2-- 2---2-- 2---2--|
B|1-----1-1---1---1---1---1---1--|3-----3-3---3---3---3---3---3--|
G|0-----0-0---0---0---0---0---0--|2-----2-2---2---2---2---2---2--|
D|2-----2-2---2---2---2---2---2--|0-----0-0---0---0---0---0---0--|
A|3-----3-3---3---3---3---3---3--|-------------------------------|
E|-------------------------------|-------------------------------| 
  hard                    loving you,                 yes     it's 


  
e|3-----3 3---3-- 3---3-- 3---3--|2-----2 2---2-- 2---2-- 2---2--|
B|1-----1-1---1---1---1---1---1--|3-----3-3---3---3---3---3---3--|
G|0-----0-0---0---0---0---0---0--|2-----2-2---2---2---2---2---2--|
D|2-----2-2---2---2---2---2---2--|0-----0-0---0---0---0---0---0--|
A|3-----3-3---3---3---3---3---3--|-------------------------------|
E|-------------------------------|-------------------------------|
  so hard                 loving  you                     loving


  
e|3-----3 3---3-- 3---3-- 3---0--|0-----0 0---0-- 0---0-- 0---0--|
B|3-----3-3---3---3---3---3---0--|0-----0-0---0---0---0---0---0--|
G|0-----0-0---0---0---0---0---0--|0-----0-0---0---0---0---0---0--|
D|0-----0-0---0---0---0---0---2--|2-----2-2---2---2---2---2---2--|
A|2-----2-2---2---2---2---2---2--|2-----2-2---2---2---2---2---2--|
E|3-----3-3---3---3---3---3---0--|0-----0-0---0---0---0---0---0--|
  you ... 
e|------- ------- ------- -------|------- ------- ------- -------|
B|-------------------------------|-------------------------------|
G|0-----------0---0---0-------0--|------------0-------0-------0--|
D|5-----------4---2---0-------2--|------------0-------2-------4--|
A|5-----------5---5---5-------2--|------------2-------2-------2--|
E|-------------------------------|-------------------------------|

                         

  
e|3-----3 3---3-- 3---3-- 3---0--|0-----0 0---0-- 0---0-- 0---0--|
B|3-----3-3---3---3---3---3---0--|0-----0-0---0---0---0---0---0--|
G|0-----0-0---0---0---0---0---0--|0-----0-0---0---0---0---0---0--|
D|0-----0-0---0---0---0---0---2--|2-----2-2---2---2---2---2---2--|
A|2-----2-2---2---2---2---2---2--|2-----2-2---2---2---2---2---2--|
E|3-----3-3---3---3---3---3---0--|0-----0-0---0---0---0---0---0--|

e|------- ------- ------- -------|------- ------- ------- -------|
B|-------------------------------|-------------------------------|
G|0-----------0---0---0-------0--|------------0-------0-------0--|
D|5-----------4---2---0-------2--|------------0-------2-------4--|
A|5-----------5---5---5-------2--|------------2-------2-------2--|
E|-------------------------------|-------------------------------|



  
e|3-----3 3---3-- 3---3-- 3---0--|0-----0 0---0-- 0---0-- 0---0--|
B|3-----3-3---3---3---3---3---0--|0-----0-0---0---0---0---0---0--|
G|0-----0-0---0---0---0---0---0--|0-----0-0---0---0---0---0---0--|
D|0-----0-0---0---0---0---0---2--|2-----2-2---2---2---2---2---2--|
A|2-----2-2---2---2---2---2---2--|2-----2-2---2---2---2---2---2--|
E|3-----3-3---3---3---3---3---0--|0-----0-0---0---0---0---0---0--|

e|------- ------- ------- -------|------- ------- ------- -------|
B|-------------------------------|-------------------------------|
G|0-----------0---0---0-------0--|------------0-------0-------0--|
D|5-----------4---2---0-------2--|------------0-------2-------4--|
A|5-----------5---5---5-------2--|------------2-------2-------2--|
E|-------------------------------|-------------------------------|


  (.
  
e|3------ ------- ------- -------|------- ------- ------- -------|
B|3------------------------------|-------------------------------|
G|0------------------------------|-------------------------------|
D|0------------------------------|-------------------------------|
A|2------------------------------|-------------------------------|
E|3------------------------------|-------------------------------|

e|------- ------- ------- -------|------- ------- ------- -------|
B|-------------------------------|-------------------------------|
G|0------------------------------|-------------------------------|
D|5------------------------------|-------------------------------|
A|5------------------------------|-------------------------------|
E|-------------------------------|-------------------------------|


        B  Bend
        R  Release
        /  slide up
        \  slide down
        H  hammer-on
        P  pull-off
        ~  vibrato
        +  harmonic
        x  Mute note
        . - play note like a dot in standard notation
        ^ - ties two notes together
Comments