Beatles - In Spite Of All The Danger Chords & Tabs

 

In Spite Of All The Danger Chords & Tabs

Beatles Chords & Tabs

Version: 2 Type: Tab 0 ratings
1 star 2 stars 3 stars 4 stars 5 stars
comments

In Spite Of All The Danger Tab

   
Tab for The Beatles (Actually pre-Beatles, more like The Quarrymen) song from Beatles 
1.  This is the only song written by Paul McCartney & George Harrison...but not John 
although he sang lead on this song.

I like the tab out there for this song, but felt that it could be more flushed out..so 
it is, enjoy!

Song: IN SPITE OF ALL THE DANGER
Artist: The Beatles / The Quarrymen

Chord pro w/intro
Tuning EADGBe (standard)
Intro
(high e string)

e--0-4-7-12-12-12-10-7-12-12-10-7-2-2-2-2-2-2-2-|
B---------------------------------0-0-0-0-0-0-0-|
G---------------------------------2-2-2-2-2-2-2-|
D---------------------------------1-1-1-1-1-1-1-|
A---------------------------------2-2-2-2-2-2-2-|
E---------------------------------x-x-x-x-x-x-x-|

[B7] In spite of all the [E] danger
In spite of all that may [E7] be - aah ah ah ah

I'll do anything for [A] you
[A] Anything you want me [B] to
[B] If you'll be true to [E] me [A][E] - aah ah ah ah

[E] In spite of all the heart[E]ache
That you may cause [E7] me - aah ah ah ah

I'll do anything for [A] you
[A] Anything you want me [B] to
[B] If you'll be true to [E] me [A][E][E7] - aah ah ah ah

[E7] I'll [A] look after you
Like I've [E] never...done be[E7]fore
I'll [A] keep all the others
From [B] knocking [NO CHORD] at your door

[B7] In spite of all the [E] danger
In spite of all that may [E7] be - aah ah ah ah

I'll do anything for [A] you
[A] Anything you want me [B] to
[B] If you'll be true to [E] me [A][E] - aah ah ah ah

Guitar Solo Chords
[E][E][E][E7][A][A][E][E][B7][A][E]
[ Tab from: http://www.guitartabs.cc/tabs/b/beatles/in_spite_of_all_the_danger_tab_ver_2.html ]
Guitar Solo Tab
e--4-7-12-12-12-10----12--4-7-12-12-12-10----12----------|
B-5----------------12----5----------------12-------------|
G--------------------------------------------------------|
D--------------------------------------------------------|
A--------------------------------------------------------|
E--------------------------------------------------------|

e--4-7-12-12-12-10----12-10--12-10--12-10--12-10---------|
B-5----------------12------12-----12-----12-----12-------|
G--------------------------------------------------------|
D--------------------------------------------------------|
A--------------------------------------------------------|
E--------------------------------------------------------|

e-15-15-15-14-12-15-15-14-12-15-15-14-12-10--12-10--12-10-|
B------------------------------------------12-----12------|
G---------------------------------------------------------|
D---------------------------------------------------------|
A---------------------------------------------------------|
E---------------------------------------------------------|

e--13-13-13-13-13-13-12-11--12-10--12-10----2-2-2-2-2-2-2-|
B-------------------------12-----12---------0-0-0-0-0-0-0-|
G-------------------------------------------2-2-2-2-2-2-2-|
D-------------------------------------------1-1-1-1-1-1-1-|
A-------------------------------------------2-2-2-2-2-2-2-|
E-------------------------------------------x-x-x-x-x-x-x-|

[E] In spite of all the heart[E]ache
That you may cause [E7] me - aah ah ah ah

I'll do anything for [A] you
[A] Anything you want me [B] to
[B] If you'll be true to [E] me [A][E][E7] - aah ah ah ah

[E] I'll do anything for [A] you
[A] Anything you want me [B] to
[B] If you'll be true to [E] me [A][E] - aah ah ah ah
[B][E]

Paul McCartney likes to end this song by playing [B] then [E] as the ending.
(He did it like this on his "Chaos And Creation at Abbey Road" performance on February 27, 2006.

CHORDS DEFINED (EADGBe)
B7 x21202
E  022100
E7 020100
A  x02220
B  x2444x

Hope you like this version for guitar.
Another Ace Tab by Nadja Dee Witherbee
email benignlives@earthlink.net

---nadjadee-----
Comments