Beatles - In My Life Chords & Tabs

 

In My Life Chords & Tabs

Beatles Chords & Tabs

Version: 2 Type: Tab 0 ratings
1 star 2 stars 3 stars 4 stars 5 stars
comments

In My Life Tab

In My Life
By: the Beatles


E----------------------------------------------------------------|
B----1----------0---------0-----0----1----------0--------0-------|
G------------0--0---------0-----0------------0--0--------0--0h2--|
D-2-----2h3-----3------------------2----2h3-----3----------------|
A-3--------------------------------3-----------------------------|
E------------------3--3------3---------------------3--3----------|
							There

E----------0--3--0-----------0------0----------------------------|
B-3--1--3-----1-----------3----3-------3p1-----------------------|
G-------0--------------0----------------------1------------------|
D------------------------------------------------3---------------|
A-3-----2-----0-----1--------------------------------------------|
E------------------------------1--1--------1---------------------|


E----0--0-----------------0--0-0-----------0----------------------|
B----1--------------------1----------1--3--1--3--3--1--1--------1-|
G-0--0-----------0--2--0--0----------------2--------------2--2----|
D----2--------2-----------2-------2--------2----------------------|
A-3--3-----3-----------3--3----3-----------0--------0--0----------|
E-----------------------------------------------------------------|
                                          plac - es
[ Tab from: http://www.guitartabs.cc/tabs/b/beatles/in_my_life_tab_ver_2.html ]
E-0-------------0--1-0--------------0--0----------0---------------|
B---3-------3----------3--1---------1--1-----1-3--1-3-3--1-1----1-|
G------------------------------1-0---------0------2----------2-2--|
D------------------------------3-2----------------2---------------|
A------------------1---1----1----3--3----3--------0------0-0------|
E-1---1-1-1---1---------------------------------------------------|


E-0-------------------------------------------------0--0--0--0---|
B-3--3-----------1--3--4--3-----1--3--1-------------1--1--1--1---|
G-5--------------------------1-------------1----0---0--0--0--0---|
D-4-----0--0--4------------------------------0------2------------|
A-5---------------------------------------------3----------------|
E----------------------1----------------1------------------------|


E----0--0--0--0-----------------------------------------------------|
B----1--1--1--1-----1----------0----------1--4--3----1--3--1--------|
G-0--0--0--0--0-------------0--0------------------1-------------1---|
D----2-----------2-----2h3-----3----------------------------------0-|
A-3--------------3--------------------------------------------------|
E---------------------------------3--3--3----1---------------1------|


E----0--0--------------------------------------------------------|
B----------1-----------0-----------0-----0--1--------------------|
G-0-----------------0--0-----------0--2--0--0--------------------|
D-2-----2-----2--3-----3-----------3--------2--------------------|
A-3-----3-----------------------------------3--------------------|
E-------------------------3--3--3--------------------------------|

rate if you want. it should be pretty good...

sar3feng21@hotmail.com
Comments