Beatles - In My Life Chords & Tabs

 

In My Life Chords & Tabs

Beatles Chords & Tabs

Version: 8 Type: Bass Tab 0 ratings
1 star 2 stars 3 stars 4 stars 5 stars
comments

In My Life Bass Tab

In My Life - The Beatles

Tabbed By: born21239
e-mail: bass21239@gmail.com

All the other tabs seem way off the mark, but this is the closest
you'll get thanks to my MFSL vinyl rips and Sennheiser headphones. 
Pay attention to try to distinguish bass drum strikes from the notes,
they're pretty mashed together at times, as are all the instruments.

Tuning: EADG

0:01
G|---------------|------------------|-----------------|--------------|
D|---------------|------------5-6-7-|-(7)--7--7-------|--------------|
A|---------4-5-7-|-(7)--7-7-7-------|-----------4-5-7-|-(7)--7-7-----|
E|-5--5--5-------|------------------|-----------------|--------------|

0:10
G|-------------|------------|-------------|-------------|
D|-7---7-------|-4---5---7--|-------------|-7---7-7---7-|
A|-------7---7-|------------|-5---5-5---5-|-------------|
E|-------------|------------|-------------|-------------|

0:19
G|-------------|---------------|-------------|--------------|
D|-7---7-------|-4--4-7-4--7---|-------------|-7---7-7-7-7--|
A|-------7---7-|-------------5-|-5---5-5---5-|--------------|
E|-------------|---------------|-------------|--------------|

0:28
G|----------|---------------|------------------|-----------------|
D|-4--------|-0---0-0--0-1/-|-5--5-5-5-5-5-5-5-|-7-7-7-7-7-7-7---|
A|----------|---------------|------------------|---------------7-|
E|----------|---------------|------------------|-----------------|

0:37
G|----------|---------------|---------------|--------------|
D|-4--------|---------------|---------------|-7---7-7-7----|
A|----------|-2---2-2---2/--|-5---5-5-5-5-5-|------------7-|
E|----------|---------------|---------------|--------------|

0:47
G|--------------|----------------|-------------|-------------|
D|-7----7-------|-----------6--7-|-7---7-------|-4---5---7---|
A|--------4-5-7-|-(7)---7-7------|-------7--7--|-----------5-|
E|--------------|----------------|-------------|-------------|
[ Tab from: http://www.guitartabs.cc/tabs/b/beatles/in_my_life_btab_ver_8.html ]
0:56
G|-------------|--------------|-------------|-------------|
D|-------------|-7---7-7----7-|-7---7-------|-4---5---7---|
A|-5---5-5---5-|----------7---|-------7---7-|-----------5-|
E|-------------|--------------|-------------|-------------|

1:06
G|-------------|-------------|-------------|-------------|
D|-------------|-7---7-7-7---|-4--4--4--4--|-------------|
A|-5---5-5---5-|-------------|-------------|-5---5-5---5-|
E|-------------|-------------|-------------|-------------|

1:15
G|---------------|---------------|----------|-------------|
D|-5---5-5-5-5-5-|-7---7-7-7-7---|-4--------|-------------|
A|---------------|-------------7-|----------|-5---5-5--5--|
E|---------------|---------------|----------|-------------|

1:24
G|---------------|---------------|-------------|--------------|
D|---------------|-7---7-7-7-----|-7---7-------|-4---5--4-7---|
A|-5---5-5-5---5-|-------------7-|-------7---7-|------------5-|
E|---------------|---------------|-------------|--------------|

1:34
G|-------------|--------------|--------------|-------------|
D|-------------|-7---7-7----7-|-7---7--------|-4---5---7---|
A|-5---5-5---5-|----------7---|-------7-7--7-|-----------5-|
E|-------------|--------------|--------------|-------------|

1:43
G|---------------|-----------|----------|--------------|
D|---------------|-7---7-----|-4--------|--------------|
A|-5---5-5-5---5-|-----------|----------|-5---5-5--5-7-|
E|---------------|-----------|----------|--------------|

1:52
G|----------------|---------------|----------|--------------|
D|-5--5-5-5-5-5-5-|-7--7-7-7-7----|-4--------|--------------|
A|----------------|-------------7-|----------|-2--2--2--2/--|
E|----------------|---------------|----------|--------------|

2:01
G|---------------|------------|---------------|-------------|
D|---------------|-7---7-7----|-7--7--7-------|-------------|
A|-5--5-5-5-5--5-|----------7-|---------4-5-7-|-7---7-7---7-|
E|---------------|------------|---------------|-------------|

2:11
G|----------|-------------|-------------|--------------|
D|----------|-------------|-------------|-7----7-------|
A|-5--------|-------------|-------------|--------4-5-7-|
E|----------|-------------|-------------|--------------|

2:18
G|--------------|---|
D|--------------|---|
A|-7---7-7-7----|---|
E|------------5-|-5-|
Comments