Beatles - In My Life Chords & Tabs

 

In My Life Chords & Tabs

Beatles Chords & Tabs

Version: 2 Type: Bass Tab 0 ratings
1 star 2 stars 3 stars 4 stars 5 stars
comments

In My Life Bass Tab

BEATLES
IN MY LIFE
tabbed by saturns_bassman

this is the way we play it in my band its a nice litle song just listen for the timeing

intro:
 *=let it ring

g|--------------------------||
d|--------------------------||
a|--0*-------------------0*-||
e|--------0*--------0*------||
[ Tab from: http://www.guitartabs.cc/tabs/b/beatles/in_my_life_btab_ver_2.html ]
verse and chorus(just in one)               _________________
                                             |   chorus
g|-------------------------------------------|---------------------------|
d|-------------0--0------------------0--0----|-----0---------------------|
a|--0------------------0--------------------0|---------------0---------2-|
e|-----0--2--3---------------0--2--3---------|--2-------3--------2-------|
                                                              next line...
g|----------------------------||
d|--0--0----------------------||
a|---------0-------0*---------||
e|------------------------0*--||

outro:
"in my life i love you more"
g|----------------------||end on A
d|--0-------------------||
a|-------0*-----------0*||
e|-------------0*-------||


play verse again
then chorus
repeat verse
then chorus


just listen for timeing hope you enjoy!!
Comments