Beatles - Im Talking About You Chords & Tabs

 

Im Talking About You Chords & Tabs

Beatles Chords & Tabs

Version: 1 Type: Chords 0 ratings
1 star 2 stars 3 stars 4 stars 5 stars
comments

Im Talking About You Chords

   
IíM TALKING ABOUT YOU

Written by Chuck Berry


INTRO

e|---------------------------------|---------------------------------|
B|------------------------------1--|---------------------------------|
G|------------------------------0--|---------------------------------|
D|----------------------0--2-------|---------2-----------------------|
A|-----------------2---------------|-----------------2---------------|
E|-0-------------------------------|-------------------------5-p-3---|

e|---------------------------------|---------------------------------|
B|---------------------------------|---------------------------------|
G|---------------------------------|---------------------------------|
D|---------------------------------|---------------------------------|
A|---------------------------------|---------------------------------|
E|-0-------------------------------|---------------------------------|


E
Let me tell you' bout a girl I know,

Let me tell you that she looks so good.
[ Tab from: http://www.guitartabs.cc/tabs/b/beatles/im_talking_about_you_crd.html ]
Lovely indeed, that's why I asked her if she'd

I said, you ought to be in Hollywood.

E
I'm talkin' 'bout you,

Nobody but you,
                    A
Come on, give me a cue,
B
I'm just tryin' to get a message to you.


E
Let me tell you 'bout a girl I know,

Saw her walkin' down her uptown street.

Lovely indeed, that's why I asked her if she'd

I get the shivers ev'ry time we meet.


E
I'm talkin' 'bout you,

Nobody but you,
                    A
Come on, yes, it's you.
B
I'm just tryin' to get a message to you.


GUITAR SOLO: E        A    E    B  A  E


E
Let me tell you' bout a girl I know,

Let me tell you that she looks so good.

Lovely indeed, that's why I asked her if she'd

I said, you ought to be in Hollywood.


E
I'm talkin' 'bout you,

Nobody but you,
                   A
Come on, give me a cue,
B
I'm just tryin' to get a message to you.

E    A  E
Comments