Beatles - Im Talking About You Chords & Tabs

 

Im Talking About You Chords & Tabs

Beatles Chords & Tabs

Version: 2 Type: Bass Tab 0 ratings
1 star 2 stars 3 stars 4 stars 5 stars
comments

Im Talking About You Bass Tab

IíM TALKING ABOUT YOU

Written by Chuck Berry

INTRO

G|---------------------------------|---------------------------------|
D|---------------------------------|---------------------------------|
A|---------------------------------|---------------------------------|
E|---------------------------------|---------------------------------|

VERSE

G|---------------------------------|---------------------------------|
D|---------6-------9-------7---6---|---------6-------9-------7---6---|
A|-7---7-------7-------7-----------|-7---7-------7-------7-----------|
E|---------------------------------|---------------------------------|

G|---------------------------------|---------------------------------|
D|---------6-------9-------7---6---|---------6-------9-------7---6---|
A|-7---7-------7-------7-----------|-7---7-------7-------7-----------|
E|---------------------------------|---------------------------------|

G|---------------------------------|---------------------------------|
D|---------6-------9-------7---6---|---------6-------9-------7---6---|
A|-7---7-------7-------7-----------|-7---7-------7-------7-----------|
E|---------------------------------|---------------------------------|

G|---------------------------------|---------------------------------|
D|---------6-------9-------7---6---|---------6-------9-------7---6---|
A|-7---7-------7-------7-----------|-7---7-------7-------7-----------|
E|---------------------------------|---------------------------------|

CHORUS

G|---------------------------------|---------------------------------|
D|---------6-------9-------7---6---|---------6-------9-------7---6---|
A|-7---7-------7-------7-----------|-7---7-------7-------7-----------|
E|---------------------------------|---------------------------------|

G|---------------------------------|---------------------------------|
D|---------6-------9-------7---6---|---------6-------9-------7---6---|
A|-7---7-------7-------7-----------|-7---7-------7-------7-----------|
E|---------------------------------|---------------------------------|

G|---------------------------------|---------------------------------|
D|---------------------------------|---------------------------------|
A|---------4-------7-------5---4---|---------4-------7-------5---4---|
E|-5---5-------5-------5-----------|-5---5-------5-------5-----------|

G|---------------------------------|---------------------------------|
D|---------------------------------|---------------------------------|
A|---------6-------9-------7---6---|---------6-------9-------7---6---|
E|-7---7-------7-------7-----------|-7---7-------7-------7-----------|

VERSE

G|---------------------------------|---------------------------------|
D|---------6-------9-------7---6---|---------6-------9-------7---6---|
A|-7---7-------7-------7-----------|-7---7-------7-------7-----------|
E|---------------------------------|---------------------------------|

G|---------------------------------|---------------------------------|
D|---------6-------9-------7---6---|---------6-------9-------7---6---|
A|-7---7-------7-------7-----------|-7---7-------7-------7-----------|
E|---------------------------------|---------------------------------|

G|---------------------------------|---------------------------------|
D|---------6-------9-------7---6---|---------6-------9-------7---6---|
A|-7---7-------7-------7-----------|-7---7-------7-------7-----------|
E|---------------------------------|---------------------------------|

G|---------------------------------|---------------------------------|
D|---------6-------9-------7---6---|---------6-------9-------7---6---|
A|-7---7-------7-------7-----------|-7---7-------7-------7-----------|
E|---------------------------------|---------------------------------|

CHORUS

G|---------------------------------|---------------------------------|
D|---------6-------9-------7---6---|---------6-------9-------7---6---|
A|-7---7-------7-------7-----------|-7---7-------7-------7-----------|
E|---------------------------------|---------------------------------|

G|---------------------------------|---------------------------------|
D|---------6-------9-------7---6---|---------6-------9-------7---6---|
A|-7---7-------7-------7-----------|-7---7-------7-------7-----------|
E|---------------------------------|---------------------------------|

G|---------------------------------|---------------------------------|
D|---------------------------------|---------------------------------|
A|---------4-------7-------5---4---|---------4-------7-------5---4---|
E|-5---5-------5-------5-----------|-5---5-------5-------5-----------|
[ Tab from: http://www.guitartabs.cc/tabs/b/beatles/im_talking_about_you_btab_ver_2.html ]
G|---------------------------------|---------------------------------|
D|---------------------------------|---------------------------------|
A|---------6-------9-------7---6---|---------6-------9-------7---6---|
E|-7---7-------7-------7-----------|-7---7-------7-------7-----------|

GUITAR SOLO

G|---------------------------------|---------------------------------|
D|---------6-------9-------7---6---|---------6-------9-------7---6---|
A|-7---7-------7-------7-----------|-7---7-------7-------7-----------|
E|---------------------------------|---------------------------------|

G|---------------------------------|---------------------------------|
D|---------6-------9-------7---6---|---------6-------9-------7---6---|
A|-7---7-------7-------7-----------|-7---7-------7-------7-----------|
E|---------------------------------|---------------------------------|

G|---------------------------------|---------------------------------|
D|---------------------------------|---------------------------------|
A|---------4-------7-------5---4---|---------4-------7-------5---4---|
E|-5---5-------5-------5-----------|-5---5-------5-------5-----------|

G|---------------------------------|---------------------------------|
D|---------6-------9-------7---6---|---------6-------9-------7---6---|
A|-7---7-------7-------7-----------|-7---7-------7-------7-----------|
E|---------------------------------|---------------------------------|

G|---------------------------------|---------------------------------|
D|---------------------------------|---------------------------------|
A|---------6-------9-------7---6---|---------4-------7-------5---4---|
E|-7---7-------7-------7-----------|-5---5-------5-------5-----------|

G|---------------------------------|---------------------------------|
D|---------6-------9-------7---6---|-9-----9-9-----9-9-----9-9-------|
A|-7---7-------7-------7-----------|-----------------------------7---|
E|---------------------------------|---------------------------------|

VERSE

G|---------------------------------|---------------------------------|
D|---------6-------9-------7---6---|---------6-------9-------7---6---|
A|-7---7-------7-------7-----------|-7---7-------7-------7-----------|
E|---------------------------------|---------------------------------|

G|---------------------------------|---------------------------------|
D|---------6-------9-------7---6---|---------6-------9-------7---6---|
A|-7---7-------7-------7-----------|-7---7-------7-------7-----------|
E|---------------------------------|---------------------------------|

G|---------------------------------|---------------------------------|
D|---------6-------9-------7---6---|---------6-------9-------7---6---|
A|-7---7-------7-------7-----------|-7---7-------7-------7-----------|
E|---------------------------------|---------------------------------|

G|---------------------------------|---------------------------------|
D|---------6-------9-------7---6---|---------6-------9-------7---6---|
A|-7---7-------7-------7-----------|-7---7-------7-------7-----------|
E|---------------------------------|---------------------------------|

CHORUS

G|---------------------------------|---------------------------------|
D|---------6-------9-------7---6---|---------6-------9-------7---6---|
A|-7---7-------7-------7-----------|-7---7-------7-------7-----------|
E|---------------------------------|---------------------------------|

G|---------------------------------|---------------------------------|
D|---------6-------9-------7---6---|---------6-------9-------7---6---|
A|-7---7-------7-------7-----------|-7---7-------7-------7-----------|
E|---------------------------------|---------------------------------|

G|---------------------------------|---------------------------------|
D|---------------------------------|---------------------------------|
A|---------4-------7-------5---4---|---------4-------7-------5---4---|
E|-5---5-------5-------5-----------|-5---5-------5-------5-----------|

G|---------------------------------|---------------------------------|
D|---------------------------------|---------------------------------|
A|---------6-------9-------7---6---|---------6-------9-------7---6---|
E|-7---7-------7-------7-----------|-7---7-------7-------7-----------|

OUTRO

G|---------------------------------|---------------------------------|
D|---------6-------9-------7---6---|---------6-------9-------7---6---|
A|-7---7-------7-------7-----------|-7---7-------7-------7-----------|
E|---------------------------------|---------------------------------|

G|---------------------------------|-------------9-------------------|
D|---------------------------------|-----6---9-----------------------|
A|---------4-------7-------5---4---|-7-----------------------7-------|
E|-5---5-------5-------5-----------|---------------------------------|
Comments