Beatles - Im A Loser Chords & Tabs

 

Im A Loser Chords & Tabs

Beatles Chords & Tabs

Version: 1 Type: Bass Tab 0 ratings
1 star 2 stars 3 stars 4 stars 5 stars
comments

Im A Loser Bass Tab

Title        : I'm A Loser
Artist/Group : The Beatles     Album : Beatles For Sale
Info         : 4 String Standard Bass 
Date - Time  : 7/31/2002 - 10:51:19 AM
Created by   : Ken Robertson
[ Tab from: http://www.guitartabs.cc/tabs/b/beatles/im_a_loser_btab.html ]
G-----------------------------------|---------------5-7-------------------|-
D---5-5-------------3-3-----5-5-----|-5-5---------7-------3-3-----5-5---5-|-
A-------5---5-5---------3-------5-7-|-----5---5-5-------------3-------5---|-
E---------------5-------------------|-------------------------------------|-
                                                                          
G-------------------|-----------------|---------------------------------|-
D-------------------|-----------------|-5-4-2---2---------------3-2-----|-
A---0-2-3-4-5-3-2-1-|-0-2-3-4-5-3-2-1-|-------5---5-3-2-0-2-3-5-----5-3-|-
E-------------------|-----------------|---------------------------------|-
Comments