Beatles - Ill Follow The Sun Chords & Tabs

 

Ill Follow The Sun Chords & Tabs

Beatles Chords & Tabs

Version: 1 Type: Bass Tab 0 ratings
1 star 2 stars 3 stars 4 stars 5 stars
comments

Ill Follow The Sun Bass Tab

Title        : I'll Follow The Sun
Artist/Group : The Beatles     Album : Beatles For Sale
Info         : 4 String Standard Bass 
Date - Time  : 7/31/2002 - 10:40:48 AM
Created by   : Ken Robertson
[ Tab from: http://www.guitartabs.cc/tabs/b/beatles/ill_follow_the_sun_btab.html ]
G-------------------|-----------------|-----------------|-----------------|-
D---5---3-----------|-------5---5-3---|-5---3-----------|-------5---5---5-|-
A-----5---3-3---5---|-3-2-5---3-----3-|---5---3-3---5---|-3-2-5---3---3---|-
E-------------3---5-|-----------------|-----------3---5-|-----------------|-
                                                           
G-------------------|-----------------|-----------------|-
D---3---3-----5---5-|-3---3-----5---7-|-5---3-----------|-
A-----3---3-3---3---|---3---3-3---5---|---5---3-3---5---|-
E-------------------|-----------------|-----------3---5-|-
                        
G-------------------|-
D---------5-----3---|-
A---3-2-5---3-5---3-|-
E-------------------|-
Comments