Beatles - Ill Cry Instead Chords & Tabs

 

Ill Cry Instead Chords & Tabs

Beatles Chords & Tabs

Version: 1 Type: Bass Tab

Ill Cry Instead Bass Tab

|--0-------|0-------|0-------|0-------|0-------|0-----|--------|
|4---0-4-0-|--0-4-0-|--0-4-0-|--0-4-0-|--0-4-0-|--4-2-|0-------|
|----------|--------|--------|--------|--------|------|--0-3-0-|
|----------|--------|--------|--------|--------|------|--------|
 
|------|----|--------|--------|--------|0-0-----|----2---|0---|
|0---0-|----|--------|--------|----0-3-|----0-4-|0-0---0-|--0-|
|--0---|3---|3-3-----|3-3-----|3-3-----|--------|--------|----|
|------|--3-|----3-3-|----3-3-|--------|--------|--------|----|
   
|0-------|0-----|0-----|0-----|0-----|0-----|0-----|------|------|
|--0-2-4-|--0-0-|--0-0-|--0-0-|--0-0-|--0-0-|--4-2-|0-----|0---0-|
|--------|------|------|------|------|------|------|--0-0-|--0---|
|--------|------|------|------|------|------|------|------|------|
    
|------|--------|--------|--------|0-0-----|----2---|0---|0-----|
|------|--------|--------|----0-3-|----0-4-|0-0---0-|--0-|--0---|
|3-----|3-3---3-|3-3-----|3-3-----|--------|--------|----|----3-|
|--3-3-|----3---|----3-3-|--------|--------|--------|----|------|
 
|------|------|----|------|------|------|----|----|0-------|
|--4---|--4---|--2-|--2-1-|0-----|0-0---|2---|--0-|--0-4-0-|
|2---2-|2---2-|0---|0-----|--0-0-|----0-|--2-|0---|--------|
|------|------|----|------|------|------|----|----|--------|
   
|0-------|0-----|0-------|0-------|0-----|------|------|----|
|--0-4-0-|--0-0-|--0-4-0-|--0-4-0-|--4-2-|0-----|0---0-|----|
|--------|------|--------|--------|------|--0-0-|--0---|3---|
|--------|------|--------|--------|------|------|------|--3-|
  
|--------|5-4-------|----------|------|----2---|0---|0-------|
|--------|----5-3---|0-0-------|--0---|0-0---0-|--0-|--4-2-0-|
|3-3-----|--------5-|----3-1-0-|------|--------|----|--------|
|----3-3-|----------|----------|3---3-|--------|----|--------|
 
|------|------|----|------|------|--------|------|------|0-------|
|--4---|--4---|--2-|--2-1-|0-----|0-0---0-|2-----|--0-0-|--0-4-0-|
|2---2-|2---2-|0---|0-----|--0-0-|----0---|--2-1-|0-----|--------|
|------|------|----|------|------|--------|------|------|--------|
 
|0-------|0-------|0-------|0-------|0-----|--------|------|
|--0-4-0-|--0-4-0-|--0-4-0-|--0-4-0-|--4-2-|0-------|0---0-|
|--------|--------|--------|--------|------|--0-3-0-|--0---|
|--------|--------|--------|--------|------|--------|------|
  
|----|--------|5-4-------|----------|0-0-----|----2---|0---|-|
|----|--------|----5-3---|0-0-------|----0-4-|0-0---0-|--0-|5|
|3---|3-3-----|--------5-|----3-1-0-|--------|--------|----|-|
|--3-|----3-3-|----------|----------|--------|--------|----|-|


yeeeee, good song
[ Tab from: http://www.guitartabs.cc/tabs/b/beatles/ill_cry_instead_btab.html ]