Beatles - Ill Be On My Way Chords & Tabs

 

Ill Be On My Way Chords & Tabs

Beatles Chords & Tabs

Version: 2 Type: Bass Tab 0 ratings
1 star 2 stars 3 stars 4 stars 5 stars
comments

Ill Be On My Way Bass Tab

IíLL BE ON MY WAY

Written by John Lennon and Paul McCartney
From The Beatles Live At The BBC album

Side By Side #3 (June 24, 1963)

INTRO


G|---------------------------------|---------------------------------|
D|-7---------------7---------------|-7---------------7-----------7---|
A|---------------------------------|---------------------------------|
E|---------------------------------|---------------------------------|


G|---------------------------------|---------------------------------|
D|-7---------------7-----------7---|-7---------------7---------------|
A|---------------------------------|---------------------------------|
E|---------------------------------|---------------------------------|
                                                                 The

VERSE


G|---------------------------------|---------------------------------|
D|-7-----------7---7---------------|---------------------------------|
A|---------------------------------|-7-----------7---7---------------|
E|---------------------------------|---------------------------------|
   sun     is  fading      away

G|---------------------------------|-7-----------7---7---------------|
D|-7-----------7---7---------------|---------------------------------|
A|---------------------------------|---------------------------------|
E|---------------------------------|---------------------------------|
   that's  the end     of  the day

G|---------------------------------|---------------------------------|
D|-7-----------7---7---------------|---------------------------------|
A|---------------------------------|-7-----------7---7---------------|
E|---------------------------------|---------------------------------|
   as      the June        light     turns   to  moonlight

G|---------------------------------|-----------------9-------9-------|
D|-7-----------7-------------------|-7-----------7-------------------|
A|-----------------5-----------5---|---------------------------------|
E|---------------------------------|---------------------------------|
   I'll    be      on      my        way

VERSE


G|---------------------------------|---------------------------------|
D|-7-----------7---7---------------|---------------------------------|
A|---------------------------------|-7-----------7---7---------------|
E|---------------------------------|---------------------------------|
   Just    one kiss    and I'll      go                      donít

G|---------------------------------|-7-----------7---7---------------|
D|-7-----------7---7---------------|---------------------------------|
A|---------------------------------|---------------------------------|
E|---------------------------------|---------------------------------|
   hide    the tears  that don't     show

G|---------------------------------|---------------------------------|
D|-7-----------7---7---------------|---------------------------------|
A|---------------------------------|-7-----------7---7---------------|
E|---------------------------------|---------------------------------|
   as      the June        light     turns   to  moonlight

G|---------------------------------|---------------------------------|
D|-7-----------7-------------------|-7-----------7---7---------------|
A|-----------------5---------------|---------------------------------|
E|---------------------------------|---------------------------------|
   I'll    be      on      my        way                         To

BRIDGE


G|---------------------------------|-----------------9---7---6-------|
D|-9-----------9---9---------------|-------------9---------------9---|
A|---------------------------------|-7-------7-----------------------|
E|---------------------------------|---------------------------------|
   where   the winds       don't     blow                        and

G|---------------------------------|-----------------9-------9-------|
D|-9-----------9---9---------------|-------------9-------------------|
A|---------------------------------|-7-------------------------------|
E|---------------------------------|---------------------------------|
   golden          rivers            flow

G|---------------------------------|---------------------------------|
D|---------------------------------|-9-----------9---9-------9-------|
A|-9-----------9---9---------------|---------------------------------|
E|---------------------------------|---------------------------------|
   this    way        will I         go

VERSE


G|---------------------------------|---------------------------------|
D|-7-----------7---7---------------|---------------------------------|
A|---------------------------------|-7-----------7---7---------------|
E|---------------------------------|---------------------------------|
   They   were right   I   was       wrong

G|---------------------------------|-7-----------7-------------------|
D|-7-----------7---7---------------|---------------------------------|
A|---------------------------------|-----------------5---------------|
E|---------------------------------|---------------------------------|
   true   love didn't      last      long
[ Tab from: http://www.guitartabs.cc/tabs/b/beatles/ill_be_on_my_way_btab_ver_2.html ]
G|---------------------------------|---------------------------------|
D|-7-----------7---7---------------|---------------------------------|
A|---------------------------------|-7-----------7---7---------------|
E|---------------------------------|---------------------------------|
   as      the June        light     turns   to  moonlight

G|-----------------7-----------7---|---------------------------------|
D|-7-----------7-------------------|-7-----------7-------------------|
A|---------------------------------|-----------------7-------7-------|
E|---------------------------------|---------------------------------|
   I'll    be      on      my        way             hey

GUITAR SOLO


G|---------------------------------|---------------------6---9---7---|
D|-7-----------7---7---------------|-----------------9---------------|
A|---------------------------------|-7-----------7-------------------|
E|---------------------------------|---------------------------------|


G|---------------------------------|-7-----------7---7-----------7---|
D|-7-----------7---7---------------|---------------------------------|
A|---------------------------------|---------------------------------|
E|---------------------------------|---------------------------------|


G|---------------------------------|---------------------------------|
D|-7-------7-----------------------|-----------------9---------------|
A|-----------------7-------7-------|-7-----------7-----------7-------|
E|---------------------------------|---------------------------------|


G|---------------------------------|---------------------------------|
D|-7-------7-----------------------|-7-------7-------7-------7-------|
A|-----------------5-------5-------|---------------------------------|
E|---------------------------------|---------------------------------|
                                                                 To

BRIDGE


G|---------------------------------|---------------------------------|
D|-9-----------9---9---------------|---------------------------------|
A|---------------------------------|-7-----------7---7---------------|
E|---------------------------------|---------------------------------|
   where   the winds       don't     blow                        and

G|---------------------------------|-----------------9---------------|
D|-9-----------9---9---------------|-------------9-------------------|
A|---------------------------------|-7-------------------------------|
E|---------------------------------|---------------------------------|
   golden          rivers            flow

G|---------------------------------|-----------------9-------9-------|
D|---------------------------------|-9-----------9-------------------|
A|-9-----------9---9---------------|---------------------------------|
E|---------------------------------|---------------------------------|
   this    way        will I         go

VERSE


G|---------------------------------|---------------------------------|
D|-7-----------7---7---------------|---------------------------------|
A|---------------------------------|-7-----------7---7---------------|
E|---------------------------------|---------------------------------|
   They   were right   I   was       wrong

G|---------------------------------|-7-----------7---7---------------|
D|-7-----------7---7---------------|---------------------------------|
A|---------------------------------|---------------------------------|
E|---------------------------------|---------------------------------|
   true   love didn't      last      long

G|---------------------------------|---------------------------------|
D|-7-----------7---7---------------|---------------------------------|
A|---------------------------------|-7-----------7---7---------------|
E|---------------------------------|---------------------------------|
   as      the June        light     turns   to  moonlight

G|---------------------------------|---------------------------------|
D|-7-----------7-------------------|-7-----------7-------------------|
A|-----------------5-----------5---|-----------------7-------7-------|
E|---------------------------------|---------------------------------|
   I'll    be      on      my        way             hey

OUTRO


G|---------------------------------|---------------------------------|
D|-7-----------7---7-----------7---|-7-----------7---7---------------|
A|---------------------------------|---------------------------------|
E|---------------------------------|---------------------------------|
   I'll    be      on      my        way             oh

G|---------------------------------|---------------------------------|
D|-7-----------7---7-----------7---|-7-----------7---7---------------|
A|---------------------------------|---------------------------------|
E|---------------------------------|---------------------------------|
   I'll    be      on      my        way             oh

G|---------------------------------|---------------------------------|
D|-7-----------7---7-----------7---|-7-----------7---7---------------|
A|---------------------------------|---------------------------------|
E|---------------------------------|---------------------------------|
   I'll    be      on      my        way             oh...
Comments