Beatles - If Youve Got Trouble Chords & Tabs

 

If Youve Got Trouble Chords & Tabs

Beatles Chords & Tabs

Version: 1 Type: Bass Tab

If Youve Got Trouble Bass Tab

If You've Got Trouble
(Lennon-McCartney)
By The Beatles
From Anthology 2.

Intro:
(Drums)
G|------- ------- ------- -------|------- ------- ------- -------|
D|-------------------------------|-------------------------------|
A|-------------------------------|-------------------------------|
E|-------------------------------|-------------------------------|


G|------- 9------ ------- 7---9--|------- 9------ ------- 7---9--|
D|------------9-------9----------|------------9-------9----------|
A|7---7--------------------------|7---7--------------------------|
E|-------------------------------|-------------------------------|


Verse:

G|------- 9------ ------- 7---9--|------- ------- ------- -------|
D|------------9-------9----------|--------9---------------7---9--|
A|7---7--------------------------|------------9-------9----------|
E|-------------------------------|7---7--------------------------|


G|------- 9------ ------- 7---9--|------- 9------ ------- 7---9--|
D|------------9-------9----------|------------9-------9----------|
A|7---7--------------------------|7---7--------------------------|
E|-------------------------------|-------------------------------|


G|------- 9------ ------- 7---9--|------- ------- ------- -------|
D|------------9-------9----------|--------9---------------7---9--|
A|7---7--------------------------|------------9-------9----------|
E|-------------------------------|7---7--------------------------|


G|------- 9------ ------- 7---9--|------- 9------ ------- 7---9--|
D|------------9-------9----------|------------9-------9----------|
A|7---7--------------------------|7---7--------------------------|
E|-------------------------------|-------------------------------|


G|------- ------- ------- -------|------- ------- ------- -------|
D|--------7---------------5---7--|--------9---------------7---9--|
A|------------7-------7----------|------------9-------9----------|
E|5---5--------------------------|7---7--------------------------|


G|------- ------- ------- -------|------- ------- ------- -------|
D|--------7---------------5---7--|--------9---------------7---9--|
A|------------7-------7----------|------------9-------9----------|
E|5---5--------------------------|7---7--------------------------|


G|------- 9------ ------- 7---9--|------- ------- ------- -------|
D|------------9-------9----------|--------9---------------7---9--|
A|7---7--------------------------|------------9-------9----------|
E|-------------------------------|7---7--------------------------|


G|------- 9------ ------- 7---9--|------- 9------ ------- 7---9--|
D|------------9-------9----------|------------9-------9----------|
A|7---7--------------------------|7---7--------------------------|
E|-------------------------------|-------------------------------|


Bridge:
[ Tab from: http://www.guitartabs.cc/tabs/b/beatles/if_youve_got_trouble_btab.html ]
G|------- ------- ------- -------|------- ------- ------- -------|
D|7---7---7---7---7---7---7---7--|-------------------------------|
A|-------------------------------|7---7---7---7---7---7---7---7--|
E|-------------------------------|-------------------------------|


G|------- ------- ------- -------|------- ------- ------- -------|
D|7---7---7---7------------------|9---9---9---9------------------|
A|----------------7---7---7---7--|----------------7---7---7---7--|
E|-------------------------------|-------------------------------|


G|------- ------- ------- -------|------- ------- ------- -------|
D|7---7---7---7---7---7---7---7--|-------------------------------|
A|-------------------------------|7---7---7---7---7---7---7---7--|
E|-------------------------------|-------------------------------|


G|------- ------- ------- -------|------- ------- ------- -------|
D|7---7---7---7------------------|9---9---9---9------------------|
A|----------------7---7---7---7--|----------------7---7---7---7--|
E|-------------------------------|-------------------------------|


Break (guitar solo):

G|------- 9------ ------- 7---9--|------- 9------ ------- 7---9--|
D|------------9-------9----------|------------9-------9----------|
A|7---7--------------------------|7---7--------------------------|
E|-------------------------------|-------------------------------|


G|------- 9------ ------- 7---9--|------- 9------ ------- 7---9--|
D|------------9-------9----------|------------9-------9----------|
A|7---7--------------------------|7---7--------------------------|
E|-------------------------------|-------------------------------|


G|------- ------- ------- -------|------- ------- ------- -------|
D|--------7---------------5---7--|--------7---------------5---7--|
A|------------7-------7----------|------------7-------7----------|
E|5---5--------------------------|5---5--------------------------|


G|------- 9------ ------- 7---9--|------- 9------ ------- 7---9--|
D|------------9-------9----------|------------9-------9----------|
A|7---7--------------------------|7---7--------------------------|
E|-------------------------------|-------------------------------|


G|------- ------- ------- -------|------- ------- ------- -------|
D|--------9---------------7---9--|--------7---------------5---7--|
A|------------9-------9----------|------------7-------7----------|
E|7---7--------------------------|5---5--------------------------|


G|------- 9------ ------- 7---9--|------- 9------ ------- 7---9--|
D|------------9-------9----------|------------9-------9----------|
A|7---7--------------------------|7---7--------------------------|
E|-------------------------------|-------------------------------|

The song goes like this:
Intro |Verse |Verse |Bridge |Verse |Break |Bridge |Verse+Outro

This is my first tab, please correct me if necessary.