Beatles - I Want To Hold Your Hand Chords & Tabs

 

I Want To Hold Your Hand Chords & Tabs

Beatles Chords & Tabs

Version: 3 Type: Bass Tab 0 ratings
1 star 2 stars 3 stars 4 stars 5 stars
comments

I Want To Hold Your Hand Bass Tab

I Want To Hold Your Hand
The Beatles
Written by John Lennon and Paul McCartney; released on single "I Want To 
Hold Your Hand / This Boy"

I think this is one of the best songs among their big hits.

Intro:
G|------- ------- ------- -------|------- ------- ------- -------|
D|-------------------------------|-------------------------------|
A|-------------------------------|------------------------7---5--|
E|-------------------------------|--------------------8----------|



G|------- ------- ------- -------|------- ------- ------- -------|
D|-------------------------------|-------------------------------|
A|--------5---5---5-------7---5--|--------5---5---5-------7---5--|
E|--------------------8----------|--------------------8----------|



G|------- ------- ------- -------|------- ------- ------- -------|
D|-------------------------------|-------------------------------|
A|--------5---5---5---5---5---5--|5---5---5---5---5---5---5---5--|
E|-------------------------------|-------------------------------|
                                                  Oh,     yeah,

Verse:
G|------- ------- ------- -------|------- ------- ------- -------|
D|5-----------5-----------5------|-------------------------------|
A|----------------5--------------|5-----------5---5---4---5---6--|
E|-------------------------------|-------------------------------|
  I                       tell you something,


G|------- ------- ------- -------|------- ------- ------- -------|
D|-------------------------------|-------------------------------|
A|7-----------7---7--------------|------------------------7------|
E|-------------------------------|7-----------7---7--------------|
      I   think   un  -   der  -  stand                   When
              you'll

G|------- ------- ------- -------|------- ------- ------- -------|
D|5-----------5-----------5------|-------------------------------|
A|----------------5--------------|5-----------5---5---4---5---6--|
E|-------------------------------|-------------------------------|
  I                       say that something,


G|------- ------- ------- -------|------- ------- ------- -------|
D|-------------------------------|9-------9-------9-------9------|
A|7-----------7---7--------------|-------------------------------|
E|-------------------------------|-------------------------------|
      I   want to hold    your hand!


G|------- ------- ------- -------|------- ------- ------- -------|
D|-------------------------------|5-----------5------------------|
A|----------------5-----------5--|----------------7-----------7--|
E|8-----------8------------------|-------------------------------|
      I   want to hold    your    hand,


G|------- ------- ------- -------|------- ------- ------- -------|
D|-------------------------------|5-----------5-----------5------|
A|----------------5-----------5--|----------------5---5----------|
E|8-----------8------------------|-------------------------------|
      I   want to hold    your    hand                    Oh,

Verse:
G|------- ------- ------- -------|------- ------- ------- -------|
D|5-----------5---5--------------|-------------------------------|
A|-------------------------------|5-----------5---5---4---5---6--|
E|-------------------------------|-------------------------------|
  please,                 say to  me,


G|------- ------- ------- -------|------- ------- ------- -------|
D|-------------------------------|-------------------------------|
A|7-----------7---7--------------|------------------------7------|
E|-------------------------------|7-----------7---7--------------|
      you'll  me  be      your    man                     And
          let

G|------- ------- ------- -------|------- ------- ------- -------|
D|5-----------5---5--------------|-------------------------------|
A|-------------------------------|5-----------5---5---4---5---6--|
E|-------------------------------|-------------------------------|
  please,                 say to  me,


G|------- ------- ------- -------|------- ------- ------- -------|
D|-------------------------------|9---9---9---9---9---9---9---9--|
A|7-----------7---7--------------|-------------------------------|
E|-------------------------------|-------------------------------|
      you'll  me  hold    your hand
          let

G|------- ------- ------- -------|------- ------- ------- -------|
D|-------------------------------|5------------------------------|
A|----------------5--------------|----------------7--------------|
E|8------------------------------|-------------------------------|
      Now let me  hold    your    hand,


G|------- ------- ------- -------|------- ------- ------- -------|
D|-------------------------------|5-----------5-----------5------|
A|----------------5--------------|----------------5--------------|
E|8------------------------------|-------------------------------|
      I   want to hold    your    hand

Bridge:
G|------- ------- ------- -------|------- ------- ------- -------|
D|-------------------------------|5-----------5---5--------------|
A|5-----------5---5--------------|-------------------------------|
E|-------------------------------|-------------------------------|
          And     when    I       touch   you,    I       feel


G|------- ------- ------- -------|------- ------- ------- -------|
D|-------------------------------|7-----------7---7--------------|
A|-------------------------------|-------------------------------|
E|8-----------8---8--------------|-------------------------------|
  happy                   inside


G|------- ------- ------- -------|------- ------- ------- -------|
D|-------------------------------|5-----------5---5--------------|
A|5-----------5---5--------------|-------------------------------|
E|-------------------------------|-------------------------------|
          It's    such    a       fee  -  ling    that    my


G|------- ------- ------- -------|------- ------- ------- -------|
D|-------------------------------|-------------------------------|
A|--------------------7-------5--|--------5---5---5-------7---5--|
E|8-----------8---8-------8------|--------------------8----------|
  love                I   can't                       I   can't
                              hide,                           hide,
[ Tab from: http://www.guitartabs.cc/tabs/b/beatles/i_want_to_hold_your_hand_btab_ver_3.html ]
G|------- ------- ------- -------|------- ------- ------- -------|
D|-------------------------------|-------------------------------|
A|--------5---5---5-------7---5--|--------5---5---5---5---5---5--|
E|--------------------8----------|-------------------------------|
                      I   can't
                              hide!

G|------- ------- ------- -------|
D|-------------------------------|
A|5---5---5---5---5---5---5---5--|
E|-------------------------------|
                          Yeah,

Verse:
G|------- ------- ------- -------|------- ------- ------- -------|
D|5-----------5-----------5------|-------------------------------|
A|----------------5--------------|5-----------5---5---4---5---6--|
E|-------------------------------|-------------------------------|
  you,                    got that something?


G|------- ------- ------- -------|------- ------- ------- -------|
D|-------------------------------|-------------------------------|
A|7-----------7---7--------------|------------------------7------|
E|-------------------------------|7-----------7---7--------------|
      I   think   un  -   der  -  stand                   When
              you'll

G|------- ------- ------- -------|------- ------- ------- -------|
D|5-----------5---5--------------|-------------------------------|
A|-------------------------------|5-----------5---5---4---5---6--|
E|-------------------------------|-------------------------------|
  I                       feel that something,


G|------- ------- ------- -------|------- ------- ------- -------|
D|-------------------------------|9-------9-------9-------9------|
A|7-----------7---7--------------|-------------------------------|
E|-------------------------------|-------------------------------|
      I   want to hold    your hand!


G|------- ------- ------- -------|------- ------- ------- -------|
D|-------------------------------|5------------------------------|
A|----------------5--------------|----------------7--------------|
E|8------------------------------|-------------------------------|
      I   want to hold    your    hand,


G|------- ------- ------- -------|------- ------- ------- -------|
D|-------------------------------|5-----------5---5--------------|
A|----------------5--------------|-------------------------------|
E|8------------------------------|-------------------------------|
      I   want to hold    your    hand

Bridge:
G|------- ------- ------- -------|------- ------- ------- -------|
D|-------------------------------|5-----------5---5--------------|
A|5-----------5---5--------------|-------------------------------|
E|-------------------------------|-------------------------------|
          And     when    I       touch   you,    I       feel


G|------- ------- ------- -------|------- ------- ------- -------|
D|-------------------------------|7-----------7---7--------------|
A|-------------------------------|-------------------------------|
E|8-----------8---8--------------|-------------------------------|
  happy                   inside


G|------- ------- ------- -------|------- ------- ------- -------|
D|-------------------------------|5-----------5---5--------------|
A|5-----------5---5--------------|-------------------------------|
E|-------------------------------|-------------------------------|
          It's    such    a       fee  -  ling    that    my


G|------- ------- ------- -------|------- ------- ------- -------|
D|-------------------------------|-------------------------------|
A|------------------------7---5--|--------5---5---5-------7---5--|
E|8-----------8---8---8----------|--------------------8----------|
  love                I   can't                       I   can't
                              hide,                           hide,

G|------- ------- ------- -------|------- ------- ------- -------|
D|-------------------------------|-------------------------------|
A|--------5---5---5-------7---5--|--------5---5---5---5---5---5--|
E|--------------------8----------|-------------------------------|
                      I   can't
                              hide!

G|------- ------- ------- -------|
D|-------------------------------|
A|5---5---5---5---5---5---5---5--|
E|-------------------------------|
                          Yeah,

Verse:
G|------- ------- ------- -------|------- ------- ------- -------|
D|5-----------5-----------5------|-------------------------------|
A|----------------5--------------|5-----------5---5---4---5---6--|
E|-------------------------------|-------------------------------|
  you,                    got that something?


G|------- ------- ------- -------|------- ------- ------- -------|
D|-------------------------------|-------------------------------|
A|7-----------7---7--------------|------------------------7------|
E|-------------------------------|7-----------7---7--------------|
      I   think   un  -   der  -  stand                   When
              you'll

G|------- ------- ------- -------|------- ------- ------- -------|
D|5-----------5---5--------------|-------------------------------|
A|-------------------------------|5-----------5---5---4---5---6--|
E|-------------------------------|-------------------------------|
  I                       say that something,


G|------- ------- ------- -------|------- ------- ------- -------|
D|-------------------------------|9------------------------------|
A|7-----------7---7--------------|-------------------------------|
E|-------------------------------|-------------------------------|
      I   want to hold    your hand!


G|------- ------- ------- -------|------- ------- ------- -------|
D|-------------------------------|5------------------------------|
A|----------------5--------------|----------------7--------------|
E|8-----------8------------------|-------------------------------|
      I   want to hold    your    hand,


G|------- ------- ------- -------|------- ------- ------- -------|
D|-------------------------------|9---9---9---9---9---9---9---9--|
A|-------------------------------|-------------------------------|
E|8---------------10-------------|-------------------------------|
      I   want to hold    your    hand,

Outro:
G|------- ------- ------- -------|------- ------- ------- -------|
D|-------------------------------|-------------------------------|
A|----------------5--------------|-----7-----5---------7-----5---|
E|8-----------8------------------|8---------------8--------------|
      I   want to hold    your    hand!


G|------- ------- ------- -------|------- ------- ------- -------|
D|5------------------------------|-------------------------------|
A|-------------------------------|-------------------------------|
E|-------------------------------|-------------------------------|

Please e-mail me for any corrections, or write a comment.
Comments