Beatles - I Wanna Hold Your Hand Chords & Tabs

 

I Wanna Hold Your Hand Chords & Tabs

Beatles Chords & Tabs

Version: 3 Type: Bass Tab 0 ratings
1 star 2 stars 3 stars 4 stars 5 stars
comments

I Wanna Hold Your Hand Bass Tab

by lennon/mccartney
tabs by Joseph Londesborough

this my version of the bass for this song


  intro


  G---------------------------------------------|
  D---------------------------------------------|
  A---3--7--5----3--7--5----3--7--5---5--5--5---|
  E---------------------------------------------|


verse


  G-------------------------------------------------------------------------|
  D---5--5-5--------------------------------5--5-5-------------------9--9-9-|
  A-------------5--5-5----7--7-7---------------------5--5-5---7--7-7--------|
  E--------------------------------7--7-7-----------------------------------|

CHORUS

[ Tab from: http://www.guitartabs.cc/tabs/b/beatles/i_wanna_hold_your_hand_btab_ver_3.html ]
   G------------------------------------------------------------------------|
   D------------------5--5---------------------------5----------------------|
   A---3--3------5--5--------7--7----3--3------5--5-------------------------|
   E------------------------------------------------------------------------|

BRIDGE 1ST BIT X2 THEN BACK TO INTRO

   G---------------------------------------------|
   D-----------5--5-5----------------------------|
   A--5--5-5-------------3--3-3----7--7-7--------|
   E---------------------------------------------|


ENDING IS CHORUS WITH THE ENDING OF THE CHORUS X2 THEN THIS

   G---------------------------------------------------|
   D-----------------------7---------------------------|
   A--3--7--5---3--7--5--------------------------------|
   E---------------------------------------------------|
Comments