Beatles - I Wanna Hold Your Hand Chords & Tabs

 

I Wanna Hold Your Hand Chords & Tabs

Beatles Chords & Tabs

Version: 2 Type: Bass Tab 0 ratings
1 star 2 stars 3 stars 4 stars 5 stars
comments

I Wanna Hold Your Hand Bass Tab

This is 100% perfect and if you dont like it unlucky because unlike what a lot of tabs
on this site will have you beleive the bass doesnt always follow the guitar perfectly

standard tuning (EADG)

intro

|----------------------------------------
|--2-0-0-0---2-0-0-0---2-0-0-0-0-00000000
|3---------3---------3-------------------
|----------------------------------------

verse

|-0-0---0------------------------0-0---0------------------------------------
|-----0---0-0-0---0-1-2-2-2----------0---0-0-0----0-1-2-2-2-----------------
|---------------4-----------2-2-2---------------4-----------2-2-2-2-2-2-2-2-
|---------------------------------------------------------------------------

chorus

|----------0--0----------------0-0---0-
|-----0--0------2--2------0--0-----0---
|3--3----------------3--3--------------
|--------------------------------------

verse 2

|-0-0---0-------------------------0-0---0-----------------------------------
|-----0---0-0-0---0-1-2-2-2-----------0---0-0-0---0-1-2-2-2-----------------
|---------------4-----------2-2-2---------------4-----------2-2-2-2-2-2-2-2-
|---------------------------------------------------------------------------

chorus
[ Tab from: http://www.guitartabs.cc/tabs/b/beatles/i_wanna_hold_your_hand_btab_ver_2.html ]
|-----------0--0----------------0-0---0
|------0--0------2--2------0--0-----0--
|-3--3----------------3--3-------------
|--------------------------------------

bridge

|-------0-0-0-------2-2-2-------0-0-0----------------------
|-0-0-0-------------------0-0-0-----------2-0-0-0---2-0-0-0
|-------------3-3-3------------------3--3---------3--------
|----------------------------------------------------------

bridge contd.

|----------------------------
|---2-0-0-0-0-0-0-0-0-0-0-0-0
|-3--------------------------
|----------------------------

verse 3

|-0-0---0-------------------------0-0---0-----------------------------------
|-----0---0-0-0---0-1-2-2-2-----------0---0-0-0---0-1-2-2-2-----------------
|---------------4-----------2-2-2---------------4-----------2-2-2-2-2-2-2-2-
|---------------------------------------------------------------------------

outro

|-----------0--0-------------------------------------------------------
|------0--0------2--2------0--0----------------------0--0---2-0---2-0--
|-3--3----------------3--3------2-2-2-2-2-2-2-2-3--3------3-----3------
|---------------------------------------------------------------------3

so there you have it your 100% correct guide to this song any problems 
e-mail me at allthatyoufear666@hotmail.com
Comments