Beatles - I Saw Her Standing There Chords & Tabs

 

I Saw Her Standing There Chords & Tabs

Beatles Chords & Tabs

Version: 1 Type: Tab 0 ratings
1 star 2 stars 3 stars 4 stars 5 stars
comments

I Saw Her Standing There Tab

   
"I Saw Her Standing There"
Lennon/McCartney

Tabbed by Mike McMillan

 Here is an early Beatles song that actually has some cool guitar parts. I have tabbed out as much as I can.
[ Tab from: http://www.guitartabs.cc/tabs/b/beatles/i_saw_her_standing_there_tab.html ]
Intro:
         E7
guitar 1
e--------4-----4--4---|-4---4--4-4-|-------|--------|
b--------3-----3--3---|-3---3--3-3-|-------|--------|
g--------4-----4--4---|-4---4--4-4-|-------%--------|
d--------2-----2--2---|-2---2--2-2-|-------|--------|
a---------------------|------------|-------|--------|
e---------------------|------------|-------|--------|

guitar 2
e---------------------|------------|-------|--------|
b---------------------|------------|-------|--------|
g---------------------|------%-----|-------%--------|
d-----------2-2-------|------------|-------|--------|
a-----------2-2-------|------------|-------|--------|
e--0-0-4-0-------5-4--|------------|-------|--------|

Comments