Beatles - I Saw Her Standing There Chords & Tabs

 

I Saw Her Standing There Chords & Tabs

Beatles Chords & Tabs

Version: 5 Type: Bass Tab 0 ratings
1 star 2 stars 3 stars 4 stars 5 stars
comments

I Saw Her Standing There Bass Tab

I SAW HER STANDING THERE

Written by Paul McCartney & John Lennon

INTRO

G|---------------------------------|---------------------------------|
D|---------6-------9-------7---6---|---------6-------9-------7---6---|
A|-7---7-------7-------7-----------|-7---7-------7-------7-----------|
E|---------------------------------|---------------------------------|

G|---------------------------------|---------------------------------|
D|---------6-------9-------7---6---|---------6-------9-------7---6---|
A|-7---7-------7-------7-----------|-7---7-------7-------7-----------|
E|---------------------------------|---------------------------------|

VERSE

G|---------------------------------|---------------------------------|
D|---------6-------9-------7---6---|---------6-------9-------7---6---|
A|-7---7-------7-------7-----------|-7---7-------7-------7-----------|
E|---------------------------------|---------------------------------|

G|---------------------------------|---------------------------------|
D|---------------------------------|---------6-------9-------7---6---|
A|---------4-------7-------5---5---|-7---7-------7-------7-----------|
E|-5---5-------5-------5-----------|---------------------------------|

G|---------------------------------|---------------------------------|
D|---------6-------9-------7---6---|---------6-------9-------7---6---|
A|-7---7-------7-------7-----------|-7---7-------7-------7-----------|
E|---------------------------------|---------------------------------|

G|---------------------------------|---------------------------------|
D|---------------------------------|---------------------------------|
A|---------6-------9-------7---7---|---------6-------9-------7---7---|
E|-7---7-------7-------7-----------|-7---7-------7-------7-----------|

CHORUS

G|---------------------------------|---------------------------------|
D|---------------------------------|-6-------6-------6-------6-------|
A|-7-------7-------7-------7-------|---------------------------------|
E|---------------------------------|---------------------------------|

G|---------------------------------|-5-------5-------5-------5-------|
D|-7-------7-------7-------7-------|---------------------------------|
A|---------------------------------|---------------------------------|
E|---------------------------------|---------------------------------|

G|---------------------------------|---------------------------------|
D|---------6-------9---9---7---6---|---------------------------------|
A|-7-----------7-------------------|---------6-------9-------7---7---|
E|---------------------------------|-7---7-------7-------7-----------|

G|---------------------------------|---------------------------------|
D|---------6-------9-------7---6---|---------6-------9-------7---6---|
A|-7---7-------7-------7-----------|-7---7-------7-------7-----------|
E|---------------------------------|---------------------------------|

VERSE

G|---------------------------------|---------------------------------|
D|---------6-------9-------7---6---|---------6-------9-------7---6---|
A|-7---7-------7-------7-----------|-7---7-------7-------7-----------|
E|---------------------------------|---------------------------------|

G|---------------------------------|---------------------------------|
D|---------------------------------|---------6-------9-------7---6---|
A|---------4-------7-------5---5---|-7---7-------7-------7-----------|
E|-5---5-------5-------5-----------|---------------------------------|

G|---------------------------------|---------------------------------|
D|---------6-------9-------7---6---|---------6-------9-------7---6---|
A|-7---7-------7-------7-----------|-7---7-------7-------7-----------|
E|---------------------------------|---------------------------------|

G|---------------------------------|---------------------------------|
D|---------------------------------|---------------------------------|
A|---------6-------9-------7---7---|---------6-------9-------7-------|
E|-7---7-------7-------7-----------|-7---7-------7-------7-----------|

CHORUS

G|---------------------------------|---------------------------------|
D|---------------------------------|-6-------6-------6-------6-------|
A|-7-------7-------7-------7-------|---------------------------------|
E|---------------------------------|---------------------------------|

G|---------------------------------|-5-------5-------5-------5-------|
D|-7-------7-------7-------7-------|---------------------------------|
A|---------------------------------|---------------------------------|
E|---------------------------------|---------------------------------|

G|---------------------------------|---------------------------------|
D|---------6-------9---9---7---6---|---------------------------------|
A|-7-----------7-------------------|---------6-------9-------7---7---|
E|---------------------------------|-7---7-------7-------7-----------|

G|---------------------------------|---------------------------------|
D|---------6-------9-------7---6---|---------------------------------|
A|-7---7-------7-------7-----------|-7-------5-------4---------------|
E|---------------------------------|-------------------------7-------|

BRIDGE

G|---------------------------------|---------------------------------|
D|---------------------------------|---------------------------------|
A|---------4-------7-------5---4---|---------4-------7-------5---4---|
E|-5---5-------5-------5-----------|-5---5-------5-------5-----------|

G|---------------------------------|---------------------------------|
D|---------------------------------|---------------------------------|
A|---------4-------7-------5---4---|---------4-------7-------5---4---|
E|-5---5-------5-------5-----------|-5---5-------5-------5-----------|

G|---------------------------------|---------------------------------|
D|---------------------------------|---------------------------------|
A|---------4-------7-------5---4---|---------4-------7-------5---4---|
E|-5---5-------5-------5-----------|-5---5-------5-------5-----------|

G|---------------------------------|---------------------------------|
D|---------------------------------|---------------------------------|
A|---------6-------9-------7---6---|---------6-------9-------7---6---|
E|-7---7-------7-------7-----------|-7---7-------7-------7-----------|

G|---------------------------------|---------------------------------|
D|---------------------------------|---------------------------------|
A|---------4-------7-------5---4---|---------4-------7-------5---4---|
E|-5---5-------5-------5-----------|-5---5-------5-------5-----------|

VERSE

G|---------------------------------|---------------------------------|
D|---------6-------9-------7---6---|---------6-------9-------7---7---|
A|-7---7-------7-------7-----------|-7---7-------7-------7-----------|
E|---------------------------------|---------------------------------|

G|---------------------------------|---------------------------------|
D|---------------------------------|---------6-------9-------7---6---|
A|---------4-------7-------5---4---|-7---7-------7-------7-----------|
E|-5---5-------5-------5-----------|---------------------------------|

G|---------------------------------|---------------------------------|
D|---------6-------9-------7---6---|---------6-------9-------7---6---|
A|-7---7-------7-------7-----------|-7---7-------7-------7-----------|
E|---------------------------------|---------------------------------|

G|---------------------------------|---------------------------------|
D|---------------------------------|---------------------------------|
A|---------6-------9-------7---6---|---------6-------9-------7---7---|
E|-7---7-------7-------7-----------|-7---7-------7-------7-----------|

CHORUS

G|---------------------------------|---------------------------------|
D|-----------------6-------9-------|-----------------6-------9-------|
A|-7-------7-----------------------|-7-------7-----------------------|
E|---------------------------------|---------------------------------|
[ Tab from: http://www.guitartabs.cc/tabs/b/beatles/i_saw_her_standing_there_btab_ver_5.html ]
G|---------------------------------|-5-------5-------5-------5-------|
D|-7-------7-------7-------7-------|---------------------------------|
A|---------------------------------|---------------------------------|
E|---------------------------------|---------------------------------|

G|---------------------------------|---------------------------------|
D|---------6-------9---9---7---6---|---------------------------------|
A|-7-----------7-------------------|---------6-------9-------7---6---|
E|---------------------------------|-7---7-------7-------7-----------|

G|---------------------------------|---------------------------------|
D|---------6-------9---9---7---6---|-9-9-----9-9-----9-9-----9-------|
A|-7---7-------7-------------------|---------------------------------|
E|---------------------------------|---------------------------------|

GUITAR SOLO

G|---------------------------------|---------------------------------|
D|---------6-------9-------7---6---|---------6-------9-------7---6---|
A|-7---7-------7-------7-----------|-7---7-------7-------7-----------|
E|---------------------------------|---------------------------------|

G|---------------------------------|---------------------------------|
D|---------6-------9-------7---6---|---------6-------9-------7---6---|
A|-7---7-------7-------7-----------|-7---7-------7-------7-----------|
E|---------------------------------|---------------------------------|

G|---------------------------------|---------------------------------|
D|---------6-------9-------7---6---|---------6-------9---------------|
A|-7---7-------7-------7-----------|-7---7-------7-------7---7---5---|
E|---------------------------------|---------------------------------|

G|---------------------------------|---------------------------------|
D|---------------------------------|---------------------------------|
A|---------6-------9-------7---6---|---------------------------------|
E|-7---7-------7-------7-----------|-7-----------7---7-------7-------|

G|---------------------------------|---------------------------------|
D|---------------------------------|-----------------6-------6---9---|
A|-7---7---7---7---7---7---7---7---|-7---7---7---7-------------------|
E|---------------------------------|---------------------------------|

G|---------------------------------|---------------------------------|
D|-7---7-----------7---7-------7---|-7-------7---7-------7---7---9---|
A|---------------------------------|---------------------------------|
E|---------------------------------|---------------------------------|

G|---------------------------------|---------------------------------|
D|---------6-------9-------7---6---|-----------------7---7---6---4---|
A|-7---7-------7-------7-----------|---------6---9-------------------|
E|---------------------------------|-7-------------------------------|

G|---------------------------------|---------------------------------|
D|---------6-------9---9---7-------|---------------------------------|
A|-7-----------7-------------------|-7-------5-------4---------------|
E|---------------------------------|-------------------------7-------|

BRIDGE

G|---------------------------------|---------------------------------|
D|---------------------------------|---------------------------------|
A|---------4-------7-------5---4---|---------4-------7-------5---4---|
E|-5---5-------5-------5-----------|-5---5-------5-------5-----------|

G|---------------------------------|---------------------------------|
D|---------------------------------|---------------------------------|
A|---------4-------7-------5---4---|---------4-------7-------5---4---|
E|-5---5-------5-------5-----------|-5---5-------5-------5-----------|

G|---------------------------------|---------------------------------|
D|---------------------------------|---------------------------------|
A|---------4-------7-------5---4---|---------4-------7-------5---4---|
E|-5---5-------5-------5-----------|-5---5-------5-------5-----------|

G|---------------------------------|---------------------------------|
D|---------------------------------|---------------------------------|
A|---------6-------9-------7---6---|---------6-------9---9---7---6---|
E|-7---7-------7-------7-----------|-7---7-------7-------------------|

G|---------------------------------|---------------------------------|
D|---------------------------------|---------------------------------|
A|---------4-------7-------5---4---|---------4-------7-------5---4---|
E|-5---5-------5-------5-----------|-5---5-------5-------5-----------|

VERSE

G|---------------------------------|---------------------------------|
D|---------6-------9-------7---6---|---------6-------9-------7---7---|
A|-7---7-------7-------7-----------|-7---7-------7-------7-----------|
E|---------------------------------|---------------------------------|

G|---------------------------------|---------------------------------|
D|---------------------------------|---------6-------9-------7---6---|
A|---------4-------7-------5---4---|-7---7-------7-------7-----------|
E|-5---5-------5-------5-----------|---------------------------------|

G|---------------------------------|---------------------------------|
D|---------6-------9-------7---6---|---------6-------9-------7---6---|
A|-7---7-------7-------7-----------|-7---7-------7-------7-----------|
E|---------------------------------|---------------------------------|

G|---------------------------------|---------------------------------|
D|---------------------------------|---------------------------------|
A|---------6-------9-------7---6---|---------6-------9-------7---6---|
E|-7---7-------7-------7-----------|-7---7-------7-------7-----------|

CHORUS

G|---------------------------------|---------------------------------|
D|---------------------------------|-6-------6-------6-------6-------|
A|-7-------7-------7-------7-------|---------------------------------|
E|---------------------------------|---------------------------------|

G|---------------------------------|-5-------5-------5-------5-------|
D|-7-------7-------7-------7-------|---------------------------------|
A|---------------------------------|---------------------------------|
E|---------------------------------|---------------------------------|

G|---------------------------------|---------------------------------|
D|---------6-------9---9---7---6---|---------------------------------|
A|-7---7-------7-------------------|---------6-------9-------7---7---|
E|---------------------------------|-7---7-------7-------7-----------|

G|---------------------------------|---------------------------------|
D|---------6-------9-------7---6---|---------6-------9-------7---6---|
A|-7---7-------7-------7-----------|-7---7-------7-------7-----------|
E|---------------------------------|---------------------------------|

G|---------------------------------|---------------------------------|
D|---------6-------9-------7---6---|---------------------------------|
A|-7-------------------------------|---------6-------9-------7---7---|
E|---------------------------------|-7---7-------7-------7-----------|

G|---------------------------------|---------------------------------|
D|---------6-------9-------7---6---|---------6-------9-------7-------|
A|-7---7-------7-------7-----------|-7-------------------------------|
E|---------------------------------|---------------------------------|

G|---------------------------------|---------------------------------|
D|---------6-------9-------7---6---|---------------------------------|
A|-7-------------------------------|---------6-------9-------7---6---|
E|---------------------------------|-7-----------7-------7-----------|

G|---------------------------------|-------------9-------------------|
D|-7---7---7---7---7---7---7---7---|-----6---9-----------------------|
A|---------------------------------|-7-----------------------7-------|
E|---------------------------------|---------------------------------|

G|---------------------------------|
D|---------------------------------|
A|---------------------------------|
E|---------------------------------|
Comments