Beatles - I Need You Chords & Tabs

 

I Need You Chords & Tabs

Beatles Chords & Tabs

Version: 2 Type: Bass Tab 0 ratings
1 star 2 stars 3 stars 4 stars 5 stars
comments

I Need You Bass Tab

I NEED YOU

Written by George Harrison


INTRO


G|---------------------------------|---------------------------------|
D|---------------------------------|---------------------------------|
A|---------------------------------|---------------------------------|
E|---------------------------------|---------------------0---0---0---|


VERSE


G|-----------------9---------------|---------------------------------|
D|-7-----------7-------------------|-----------------7---------------|
A|---------------------------------|-5-----------5-------------------|
E|-----------------------------5---|---------------------------------|
   You       donít realize                   how much    I       need

G|-----------------9-------9-------|-----------------9-------9-------|
D|-7-------------------------------|-7-------------------------------|
A|-----7---------------------------|-----7---------------------------|
E|---------------------------------|---------------------------------|
       you

G|---------------------------------|---------------------------------|
D|-7-------------------------------|-----------------7---------------|
A|-----------------7---------------|-5-------------------------------|
E|---------------------------------|---------------------------------|
   Love       you all      the time          and never           leave

G|-----------------9---------------|---------------------------------|
D|-7-------------------------------|-7---------------7-------6-------|
A|-----7---------------------------|-----7---------------------------|
E|---------------------------------|---------------------------------|
       you                                                   Please

CHORUS


G|-----------------6---------------|-6-------------------------------|
D|-4-----------4-----------4-------|-----------------6---------------|
A|---------------------------------|-------------4-----------4-------|
E|---------------------------------|---------------------------------|
  come on      back        to  me                            Iím

G|-----------------6---------------|-4-------------------------------|
D|-4-----------4---------------4---|---------------------------------|
A|---------------------------------|-------------------------2-------|
E|---------------------------------|-------------2---2---------------|
   lonely      as          can be                            I   need

G|-----------------9---------------|-----------------9-----------9---|
D|-7-------------------------------|-7-------------------------------|
A|-----7---------------------------|-----7---------------------------|
E|---------------------------------|---------------------------------|
       you

VERSE


G|-----------------9---------------|---------------------------------|
D|-7-----------7-------------------|-----------------7---------------|
A|---------------------------------|-5-----------5-------------------|
E|-----------------------------5---|---------------------------------|
   Said        you had     a   thing         or  two     to      tell

G|-----------------9-------9-------|-----------------9-------9-------|
D|-7-------------------------------|-7-------------------------------|
A|-----7---------------------------|-----7---------------------------|
E|---------------------------------|---------------------------------|
       me

G|-----------------9---------------|---------------------------------|
D|-7-----------7-------------------|-----------------7---------------|
A|---------------------------------|-5-----------5-------------------|
E|-----------------------------5---|---------------------------------|
   How         was I       to  know          you would   upset

G|---------------------------------|---------------------------------|
D|-7-------------------------------|-7---------------7-------6-------|
A|-----7-----------7---------------|---------------------------------|
E|---------------------------------|---------------------------------|
      me                                                     I

CHORUS


G|-----------------6---------------|-6-------------------------------|
D|-4-----------4---------------4---|-----------------6---------------|
A|---------------------------------|-------------4-----------4-------|
E|---------------------------------|---------------------------------|
   didnít      realize                                       As

G|-----------------6---------------|---------------------------------|
D|-4-----------4-------------------|---------------------------------|
A|-----------------------------3---|-2-----------2-----------2-------|
E|---------------------------------|-----------------2---------------|
   I   looked  in         your eyes                          You told

G|---------------------------------|---------------------------------|
D|-7---------------7---------------|-7-------7-------7-------7-------|
A|-------------7-----------7-------|---------------------------------|
E|---------------------------------|---------------------------------|
   me                                            oh      yes     you

BRIDGE


G|---------------------------------|---------------------------------|
D|-----------------7---------------|-----------------9---------------|
A|-5-----------5-----------5-------|-7-----------7-----------7-------|
E|---------------------------------|---------------------------------|
  told me                      you  donít want my   loviní anymore

G|-------------------------9-------|---------------------------------|
D|-7-----------7---7---------------|-7-----------7---7-------7-------|
A|---------------------------------|---------------------------------|
E|---------------------------------|---------------------------------|
                                                 Thatís  when    it

G|---------------------------------|---------------------------------|
D|-----------------7---------------|-----------------9---------------|
A|-5-----------5-----------5-------|-7-----------7-----------7-------|
E|---------------------------------|---------------------------------|
  hurt me                      and   feeling   like  this        I

G|---------------------------------|-9---9---9---9---9---9---9-------|
D|---------------------------------|---------------------------------|
A|-2-----------2-----------2-------|---------------------------------|
E|-----------------2---------------|---------------------------------|
   just canít go   on   anymore

G|-9-------9-------9-------9-------|
D|---------------------------------|
A|---------------------------------|
E|---------------------------------|


VERSE

[ Tab from: http://www.guitartabs.cc/tabs/b/beatles/i_need_you_btab_ver_2.html ]
G|-----------------9---------------|---------------------------------|
D|-7-----------7-------------------|-----------------7---------------|
A|---------------------------------|-5-----------5-------------------|
E|---------------------------------|---------------------------------|
   Please      remember              how     I   feel    about

G|-----------------9-------9-------|-----------------9-------9-------|
D|-7-------------------------------|-7-------------------------------|
A|-----7---------------------------|-----7---------------------------|
E|---------------------------------|---------------------------------|
       you

G|-----------------9---------------|---------------------------------|
D|-7-------------------------------|-----------------7---------------|
A|---------------------------------|-5-----------5-------------------|
E|-----------------------------5---|---------------------------------|
   I         could never       really            live    without

G|-------------9-----------9-------|---------------------------------|
D|-7-------------------------------|-7-------7-------7-------6-------|
A|---------------------------------|---------------------------------|
E|---------------------------------|---------------------------------|
       you                                                   So

CHORUS


G|-----------------6---------------|-6-------------------------------|
D|-4-----------4-------------------|-----------------6---------------|
A|---------------------------------|-------------4-----------4-------|
E|---------------------------------|---------------------------------|
  come on      back        and see                           Just

G|-----------------6-----------5---|-4-------------------------------|
D|-4-----------4-------------------|---------------------------------|
A|---------------------------------|-------------2-----------2-------|
E|---------------------------------|-----------------2---------------|
  what you     mean        to  me                            I   need

G|-----------------9-----------9---|---------------------------------|
D|-7-----------7-------------------|-7-------7-------7-------7-------|
A|---------------------------------|---------------------------------|
E|---------------------------------|---------------------------------|
   you                                           but     when    you

BRIDGE


G|---------------------------------|---------------------------------|
D|-----------------7---------------|---------------------------------|
A|-5-----------------------5-------|-7-----------7-----------7-------|
E|---------------------------------|-----------------7---------------|
  told me                      you  donít want my   loviní anymore

G|-----------------9-------9-------|---------------------------------|
D|-7-----------7-------------------|-7-----------7---7-------7-------|
A|---------------------------------|---------------------------------|
E|---------------------------------|---------------------------------|
                                                 Thatís  when    it

G|---------------------------------|---------------------------------|
D|-----------------7---------------|---------------------------------|
A|-5-----------5-----------5-------|-7---------------7-------5---4---|
E|---------------------------------|-------------7-------------------|
  hurt me                      and   feeling   like  this        I

G|---------------------------------|-9-----------9-------------------|
D|---------------------------------|-----------------9-------9-------|
A|-2-----------2-----------2-------|---------------------------------|
E|-----------------2---------------|---------------------------------|
   just canít go   on   anymore

G|-9-------9-------9-------7---6---|
D|---------------------------------|
A|---------------------------------|
E|---------------------------------|


VERSE


G|-----------------9---------------|---------------------------------|
D|-7-----------7-------------------|-----------------7---------------|
A|---------------------------------|-5-----------5-------------------|
E|-----------------------------5---|---------------------------------|
   Please      remember              how     I   feel    about

G|-----------------9---------------|-------------9---9---------------|
D|-----7---------------------------|-7-----------------------7-------|
A|---------------------------------|---------------------------------|
E|-5-------------------------------|---------------------------------|
       you

G|-----------------9---------------|---------------------------------|
D|-7-----------7-------------------|-----------------7---------------|
A|---------------------------------|-5-----------5-------------------|
E|-----------------------------5---|---------------------------------|
   I         could never       really            live    without

G|-----------------9---------------|---------------------------------|
D|-7-------------------------------|-7---------------7-------6-------|
A|-----7---------------------------|-----7---------------------------|
E|---------------------------------|---------------------------------|
       you                                                   So

CHORUS


G|-----------------6---------------|-6-------------------------------|
D|-4-----------4---------------4---|-----------------6---------------|
A|---------------------------------|-------------4-----------4-------|
E|---------------------------------|---------------------------------|
  come on      back        and see                           Just

G|-----------------6---------------|---------------------------------|
D|-4-----------4-------------------|---------------------------------|
A|---------------------------------|-2-----------2-----------2-------|
E|---------------------------------|-----------------2---------------|
  what you     mean        to  me                            I   need

G|---------------------------------|---------------------------------|
D|-7---------------7-------7-------|-7-----------7---7-------6---5---|
A|-------------7-------------------|---------------------------------|
E|---------------------------------|---------------------------------|
   you                                                       I   need

G|-----------------6-------6-------|-----------------11------9-------|
D|-4-----------4-------------------|-------------11------------------|
A|-----------------------------7---|-9-------------------------------|
E|---------------------------------|---------------------------------|
   you                                                       I   need

G|-7-----------7---------------6---|-7-----------7-----------7-------|
D|-----------------7---------------|-----------------7---------------|
A|---------------------------------|---------------------------------|
E|---------------------------------|---------------------------------|
   you

G|-----------------9-------9-------|---------------------------------|
D|-7-----------7-------------------|-7---7-----------7---------------|
A|---------------------------------|---------------------------------|
E|---------------------------------|---------------------------------|
Comments