Beatles - I Just Dont Understand Chords & Tabs

 

I Just Dont Understand Chords & Tabs

Beatles Chords & Tabs

Version: 2 Type: Bass Tab 0 ratings
1 star 2 stars 3 stars 4 stars 5 stars
comments

I Just Dont Understand Bass Tab

I JUST DONíT UNDERSTAND

Written by Marijohn Wilkins & Kent Westberry

INTRO
  3/4
  t=138
G|----------------------9--|-7-----------------------|
D|-----------------9-------|---------9-------7----5--|
A|-------------------------|-------------------------|
E|-------------------------|-------------------------|

G|-------------------------|-------------------------|
D|----------------------5--|-9-------9-------7----5--|
A|-7---------------7-------|-------------------------|
E|-------------------------|-------------------------|

G|----------------------9--|-7-----------------------|
D|-----------------9-------|---------9-------7----5--|
A|-7-----------------------|-------------------------|
E|-------------------------|-------------------------|

G|-------------------------|-------------------------|
D|----------------------5--|-9-------9-------7----5--|
A|-7---------------7-------|-------------------------|
E|-------------------------|-------------------------|

G|-------------------------|-------------------------|
D|-------------------------|-------------------------|
A|-7-----------------------|-------------------------|
E|-------------------------|-------------------------|

VERSE

G|-------------------------|-------------------------|
D|-------------------------|-------------------------|
A|-7--------------------7--|-------------------------|
E|-------------------------|-7---------------7-------|

G|-------------------------|-------------------------|
D|-------------------------|-------------------------|
A|-7--------------------7--|-------------------------|
E|-------------------------|-7---------------7-------|

G|-------------------------|-------------------------|
D|-------------------------|-------------------------|
A|-7-----------------------|-------------------------|
E|-------------------------|-7--------------------7--|

G|-------------------------|-------------------------|
D|-------------------------|-------------------------|
A|-7-----------------------|----------------------7--|
E|-------------------------|-7-----------------------|

G|-------------------------|-------------------------|
D|-7--------------------7--|-------------------------|
A|-------------------------|-7--------------------7--|
E|-------------------------|-------------------------|

G|-------------------------|-------------------------|
D|-7--------------------7--|-------------------------|
A|-------------------------|-7-----------------------|
E|-------------------------|-------------------------|

G|-------------------------|-------------------------|
D|-------------------------|-------------------------|
A|-7--------------------7--|-------------------------|
E|-------------------------|-7---------------7-------|

G|-------------------------|-------------------------|
D|-------------------------|-------------------------|
A|-7-----------------------|-------------------------|
E|-------------------------|-------------------------|

VERSE

G|-------------------------|-------------------------|
D|-------------------------|-------------------------|
A|-7--------------------7--|-------------------------|
E|-------------------------|-7---------------7-------|

G|-------------------------|-------------------------|
D|-------------------------|-------------------------|
A|-7-----------------------|-------------------------|
E|-------------------------|-7--------------------7--|

G|-------------------------|-------------------------|
D|-------------------------|-------------------------|
A|-7-----------------------|-------------------------|
E|-------------------------|-7--------------------7--|

G|-------------------------|-------------------------|
D|-------------------------|-------------------------|
A|-7--------------------7--|----------------------7--|
E|-------------------------|-7-----------------------|

G|-------------------------|-------------------------|
D|-7--------------------7--|-------------------------|
A|-------------------------|-7--------------------7--|
E|-------------------------|-------------------------|

G|-------------------------|-------------------------|
D|-7--------------------7--|-------------------------|
A|-------------------------|-7-----------------------|
E|-------------------------|-------------------------|

G|-------------------------|-------------------------|
D|-------------------------|-------------------------|
A|-7-----------------------|-------------------------|
E|-------------------------|-7---------------7-------|

G|-------------------------|-------------------------|
D|-------------------------|-------------------------|
A|-7--------------------7--|-------------------------|
E|-------------------------|-7-----------------------|

BRIDGE

G|-------------------------|-------------------------|
D|-7--------------------7--|-------------------------|
A|-------------------------|-7--------------------7--|
E|-------------------------|-------------------------|

G|-------------------------|-------------------------|
D|-7-----------------------|-------------------------|
A|-------------------------|-7-----------------------|
E|-------------------------|-------------------------|

G|-------------------------|-------------------------|
D|-------------------------|-------------------------|
A|-7--------------------7--|-------------------------|
E|-------------------------|-7-----------------------|

G|-------------------------|-------------------------|
D|-------------------------|-------------------------|
A|-7--------------------7--|-------------------------|
E|-------------------------|-7-----------------------|

G|-------------------------|-------------------------|
D|-7--------------------7--|-------------------------|
A|-------------------------|-7--------------------7--|
E|-------------------------|-------------------------|

G|-------------------------|-------------------------|
D|-7-----------------------|-------------------------|
A|-------------------------|-7-----------------------|
E|-------------------------|-------------------------|

G|-------------------------|-------------------------|
D|-------------------------|-------------------------|
A|-7--------------------7--|-------------------------|
E|-------------------------|-7-----------------------|

G|-------------------------|-------------------------|
D|-------------------------|-------------------------|
A|-7-----------------------|-------------------------|
E|-------------------------|-------------------------|

GUITAR SOLO

G|-------------------------|-------------------------|
D|-------------------------|-------------------------|
A|-7--------------------7--|-------------------------|
E|-------------------------|-7---------------7-------|

G|-------------------------|-------------------------|
D|-------------------------|-------------------------|
A|-7-----------------------|-------------------------|
E|-------------------------|-7-----------------------|

G|-------------------------|-------------------------|
D|-------------------------|-------------------------|
A|-7--------------------7--|-------------------------|
E|-------------------------|-7---------------7-------|
[ Tab from: http://www.guitartabs.cc/tabs/b/beatles/i_just_dont_understand_btab_ver_2.html ]
G|-------------------------|-------------------------|
D|-------------------------|-------------------------|
A|-7--------------------7--|-----------------7-------|
E|-------------------------|-7-------7---------------|

G|-------------------------|-------------------------|
D|-7--------------------7--|-------------------------|
A|-------------------------|-7---------------7-------|
E|-------------------------|-------------------------|

G|-------------------------|-------------------------|
D|-7--------------------7--|-----------------7\------|
A|-------------------------|-7-----------------------|
E|-------------------------|-------------------------|

G|-------------------------|-------------------------|
D|-------------------------|-------------------------|
A|-7--------------------7--|-------------------------|
E|-------------------------|-7--------------------7--|

G|-------------------------|-------------------------|
D|-------------------------|-------------------------|
A|-7--------------------7--|-----------------7-------|
E|-------------------------|-7-----------------------|

BRIDGE

G|-------------------------|-------------------------|
D|-7--------------------7--|-------------------------|
A|-------------------------|-7--------------------7--|
E|-------------------------|-------------------------|

G|-------------------------|-------------------------|
D|-7-----------------------|-------------------------|
A|-------------------------|-7-----------------------|
E|-------------------------|-------------------------|

G|-------------------------|-------------------------|
D|-------------------------|-------------------------|
A|-7-----------------------|-------------------------|
E|-------------------------|-7--------------------7--|

G|-------------------------|-------------------------|
D|-------------------------|-------------------------|
A|-7-----------------------|-------------------------|
E|-------------------------|-7-----------------------|

G|-------------------------|-------------------------|
D|-7-----------------------|-------------------------|
A|-------------------------|-7--------------------7--|
E|-------------------------|-------------------------|

G|-------------------------|-------------------------|
D|-7--------------------7--|-----------------7\------|
A|-------------------------|-7-----------------------|
E|-------------------------|-------------------------|

G|-------------------------|-------------------------|
D|-------------------------|-------------------------|
A|-7--------------------7--|-------------------------|
E|-------------------------|-7--------------------7--|

G|-------------------------|-------------------------|
D|-------------------------|-------------------------|
A|-7-----------------------|-------------------------|
E|-------------------------|-------------------------|

VERSE

G|-------------------------|-------------------------|
D|-------------------------|-------------------------|
A|-7--------------------7--|-------------------------|
E|-------------------------|-7---------------7-------|

G|-------------------------|-------------------------|
D|-------------------------|-------------------------|
A|-7--------------------7--|-------------------------|
E|-------------------------|-7-----------------------|

G|-------------------------|-------------------------|
D|-------------------------|-------------------------|
A|-7--------------------7--|-------------------------|
E|-------------------------|-7--------------------7--|

G|-------------------------|-------------------------|
D|-------------------------|-------------------------|
A|-7--------------------7--|-----------------7-------|
E|-------------------------|-7-----------------------|

G|-------------------------|-------------------------|
D|-------------------------|-------------------------|
A|-------------------------|-7--------------------7--|
E|-5--------------------5--|-------------------------|

G|----------------------9--|-7-----------------------|
D|-7---------------9-------|---------9-------7----5--|
A|-------------------------|-------------------------|
E|-------------------------|-------------------------|

G|-------------------------|-------------------------|
D|-------------------------|-------------------------|
A|-7--------------------7--|-------------------------|
E|-------------------------|-7--------------------7--|

G|-------------------------|-------------------------|
D|-------------------------|-------------------------|
A|-7-----------------------|-------------------------|
E|-------------------------|-------------------------|

GUITAR SOLO

G|-------------------------|-------------------------|
D|-------------------------|-------------------------|
A|-7--------------------7--|-------------------------|
E|-------------------------|-7--------------------7--|

G|-------------------------|-------------------------|
D|-------------------------|----------------/7-------|
A|-7--------------------7--|-------------------------|
E|-------------------------|-7-----------------------|

G|-------------------------|-------------------------|
D|-------------------------|-------------------------|
A|-7--------------------7--|-------------------------|
E|-------------------------|-7--------------------7--|

G|----------------------9--|-7-----------------------|
D|-----------------9-------|---------9-------7----5--|
A|-7-----------------------|-------------------------|
E|-------------------------|-------------------------|

G|-------------------------|-------------------------|
D|-7-----------------------|-------------------------|
A|-------------------------|-7--------------------7--|
E|-------------------------|-------------------------|

G|-------------------------|-------------------------|
D|-7-----------------------|-9-------9-------7----5--|
A|----------------------7--|-------------------------|
E|-------------------------|-------------------------|

G|-------------------------|-------------------------|
D|-------------------------|-9--------------------9--|
A|-7--------------------7--|-------------------------|
E|-------------------------|-------------------------|

G|-------------------------|-------------------------|
D|-------------------------|-9-----------------------|
A|-7--------------------7--|-------------------------|
E|-------------------------|-------------------------|

G|-------------------------|-------------------------|
D|-9-----------------------|-9-----------------------|
A|-------------------------|-------------------------|
E|-------------------------|-------------------------|

OUTRO

G|----------------------9--|-7-----------------------|
D|-9---------------9-------|---------9-------7----5--|
A|-------------------------|-------------------------|
E|-------------------------|-------------------------|

G|-------------------------|-------------------------|
D|----------------------5--|-9-------9-------7----5--|
A|-7---------------7-------|-------------------------|
E|-------------------------|-------------------------|

G|-------------------------|-------------------------|
D|-------------------------|-------------------------|
A|-7-----------------------|-------------------------|
E|-----------------7-------|-0-----------------------|
Comments