Beatles - I Forgot To Remember To Forget Chords & Tabs

 

I Forgot To Remember To Forget Chords & Tabs

Beatles Chords & Tabs

Version: 2 Type: Bass Tab 0 ratings
1 star 2 stars 3 stars 4 stars 5 stars
comments

I Forgot To Remember To Forget Bass Tab

I FORGOT TO REMEMBER TO FORGET

Written by Stanley A Kessler & Charles Feathers
From The Beatles Live At The BBC album

From Us To You #3 (May 18, 1964)

INTRO

  t=129
G|---------------------------------|---------------------------------|
D|---------------------------------|-9-------7-------6---------------|
A|-7-------6-------4---------------|---------------------------------|
E|-------------------------7-------|---------------------------------|


G|---------------------------------|---------------------------------|
D|---------6-------9-------6-------|---------------------------------|
A|-7-------------------------------|-7-------7-----------------------|
E|---------------------------------|-----------------7-------7-------|


VERSE


G|---------------------------------|---------------------------------|
D|---------------------------------|---------------------------------|
A|-7-------------------------------|-7-------7-------6-------4-------|
E|-----------------7-------7-------|---------------------------------|


G|---------------------------------|---------------------------------|
D|---------------------------------|---------------------------------|
A|-2-------2-----------------------|-2-------2-----------------------|
E|-----------------2-------2-------|-----------------2-------1-------|


G|---------------------------------|---------------------------------|
D|---------------------------------|---------------------------------|
A|-2-------2-----------------------|-2-------2---------------2-------|
E|-----------------2-------2-------|-----------------2---------------|


G|---------------------------------|---------------------------------|
D|---------------------------------|-------------------------6-------|
A|-7-------7-----------------------|-7-------7-------9---------------|
E|-----------------7-------7-------|---------------------------------|


G|---------------------------------|---------------------------------|
D|-7-------7-----------------------|-7-------7-----------------------|
A|-----------------7-------7-------|-----------------7---------------|
E|---------------------------------|---------------------------------|


G|---------------------------------|---------------------------------|
D|---------------------------------|---------------------------------|
A|-7-------7-----------------------|-7-------7-----------------------|
E|-----------------7-------7-------|-----------------7-------7-------|


G|---------------------------------|---------------------------------|
D|---------------------------------|---------------------------------|
A|-7-------7-------6-------4-------|-2-------2-----------------------|
E|---------------------------------|-----------------2-------2-------|


G|---------------------------------|---------------------------------|
D|---------------------------------|-------------------------6-------|
A|-7-------7-----------------------|-7-------7-------9---------------|
E|-----------------7-------7-------|---------------------------------|


BRIDGE


G|---------------------------------|---------------------------------|
D|-------------------------4-------|-------------------------4-------|
A|---------4-------7---------------|---------4-------7-----------7---|
E|-5-------------------------------|-5-------------------------------|


G|---------------------------------|---------------------------------|
D|---------------------------------|---------------------------------|
A|---------4-------7-------4-------|-----------------2-------4-------|
E|-5-------------------------------|-0-------4-----------------------|


G|---------------------------------|---------------------------------|
D|---------------------------------|---------------------------------|
A|-7---------------6-----------6---|-4-----------4---------------4---|
E|---------------------------------|-----------------7---------------|


G|---------------------------------|---------------------------------|
D|---------------------------------|---------------------------------|
A|---------6-------9-------6-------|-------------------------6-------|
E|-7-------------------------------|-7-------7-------9---------------|


G|---------------------------------|---------------------------------|
D|---------------------------------|-------------------------6-------|
A|-7-------7-----------------------|-7-------7-------9---------------|
E|-----------------7-------7-------|---------------------------------|


G|---------------------------------|---------------------------------|
D|-7-------7-----------------------|-7-------7-------6-------4-------|
A|-----------------7-------7-------|---------------------------------|
E|---------------------------------|---------------------------------|

[ Tab from: http://www.guitartabs.cc/tabs/b/beatles/i_forgot_to_remember_to_forget_btab_ver_2.html ]
G|---------------------------------|---------------------------------|
D|---------------------------------|---------7-------6-------4-------|
A|-7-------7-------6-------4-------|---------------------------------|
E|---------------------------------|-7-------------------------------|


G|---------------------------------|---------------------------------|
D|---------------------------------|---------------------------------|
A|-7-------7-----------------------|-7-------------------6-----------|
E|-----------------7-------7-------|---------7-------9---------------|


GUITAR SOLO


G|---------------------------------|---------------------------------|
D|---------------------------------|---------------------------------|
A|-7-----------------------4-------|-7-------------------------------|
E|---------4-------7---------------|---------9-------7-------4-------|


G|---------------------------------|---------------------------------|
D|---------------------------------|---------------------------------|
A|-2-------2-----------------------|-------------6---9-------6-------|
E|-----------------2-------2-------|-7-------------------------------|


G|---------------------------------|---------------------------------|
D|---------------------------------|---------------------------------|
A|---------------------------------|-------------------------6-------|
E|-7---------------7-------6-------|-5-----------7---9---------------|


G|---------------------------------|---------------------------------|
D|---------------------------------|---------------------------------|
A|-7-------7-----------------------|-7-------------------------------|
E|-----------------7-------7-------|---------4-------7-------4-------|


G|---------------------------------|---------------------------------|
D|---------------------------------|-------------------------6-------|
A|-7-------7-----------------------|-7-------7-------9---------------|
E|-----------------7-------7-------|---------------------------------|


G|---------------------------------|---------------------------------|
D|-7-------7-----------------------|-7-------7---------------7-------|
A|-----------------7-------7-------|-----------------7---------------|
E|---------------------------------|---------------------------------|


G|---------------------------------|---------------------------------|
D|---------------------------------|---------------------------------|
A|-7-------7-------6-------4-------|-2-------2-----------------------|
E|---------------------------------|-----------------2-------2-------|


G|---------------------------------|---------------------------------|
D|---------------------------------|---------------------------------|
A|-----------------2---------------|---------------------------------|
E|-0-------4---------------4-------|-0-------0-------2-------4-------|


BRIDGE


G|---------------------------------|---------------------------------|
D|---------------------------------|---------------------------------|
A|---------4-------7-------4-------|---------4-------7-------4-------|
E|-5-------------------------------|-5-------------------------------|


G|---------------------------------|---------------------------------|
D|---------------------------------|---------------------------------|
A|---------4-------7-------4-------|-----------------2-------4-------|
E|-5-------------------------------|-0-------4-----------------------|


G|---------------------------------|---------------------------------|
D|---------------------------------|---------------------------------|
A|-7-----------7---6-----------6---|-4-----------4-------------------|
E|---------------------------------|-----------------7---------------|


G|---------------------------------|---------------------------------|
D|---------------------------------|---------------------------------|
A|-----------------9-------6-------|---------------------------------|
E|-7-------------------------------|-7-------5-------4-------2-------|


G|---------------------------------|---------------------------------|
D|---------------------------------|---------------------------------|
A|---------7-----------------------|---------7-----------------------|
E|-0---------------0-------7-------|-0-------------4-7-------4-------|


G|---------------------------------|---------------------------------|
D|---------------------------------|---------------------------------|
A|-----------------7-------4-------|---------4-------7-------4-------|
E|-5-------5-----------------------|-5-------------------------------|


G|---------------------------------|---------------------------------|
D|---------------------------------|---------------------------------|
A|-7-------7-------6-------4-------|-2-------2-----------------------|
E|---------------------------------|-----------------2-------2-------|


G|---------------------------------|---------------------------------|
D|---------------------------------|-------------2-------------------|
A|-----------------2-------2-------|---------2-----------------------|
E|-0-------2-----------------------|-0-------------------------------|
Comments