Beatles - I Feel Fine Chords & Tabs

 

I Feel Fine Chords & Tabs

Beatles Chords & Tabs

Version: 5 Type: Tab 0 ratings
1 star 2 stars 3 stars 4 stars 5 stars
comments

I Feel Fine Tab

   
-------------------------------------------------------------------------------
			     "I Feel Fine" - The Beatles
-------------------------------------------------------------------------------

Tabbed by: Jamie Goodin
Email: helterskelter87@yahoo.com

Tuning:Standard Tuning

Note: This part starts out with the first ever intentional feedback in any ong.
I am not sure what string is plucked and then allowed to vibrate and eventually
uzz, but the low E string on an electric works fine for me.  Just strike it hard,
maybe with your thumb to build up a vibration.  
Guitar 2 will have an * next to it's assignment.  Guitar 2 should play the chords
in the F# position, just down the fret board.  Also, guitar 2 should hit the low E
string for that chord and then strum up and down the indicated chord.  In the
special verse, guitar one should strum the chord untill the chord changes and
then start strumming the new chord.

Feedback: 0:00-0:05

Intro: 0:05-0:15
e|---------------------------------------------------------------------------|
B|---------------------------------------------------------------------------|
G|------------------12-11-9----11-------------------10-9-7----9--------------|
D|----12-12-10--------------14---------10-10-8-------------12----------------|
A|-------12----(12)-----------------------10---(10)--------------------------|
E|-10-----------------------------10/8---------------------------------------|
                           G*(strum)
e|---------------------------------------------------------------------------|
B|---------------------------------------------------------------------------|
G|---------------5-4-2---4-------------5-4-2---4-----------------------------|
D|-----5-5-3-----------7-----5-5-3-----------7-------------------------------|
A|-------5---(5)---------------5---(5)---------------------------------------|
E|-8/3---------------------3-------------------------------------------------|

Verse 1: 0:16-0:29
  "Baby's good to me you know,  She's happy as can be you know, 
   G*(3rd fret;strum)
e|---------------------------------------------------------------------------|
B|---------------------------------------------------------------------------|
G|-------------5-4-2---4--------------------5-4-2---4------------------------|
D|---5-5-3-----------7------------5-5-3-----------7--------------------------|
A|-----5---(5)----------------------5---(5)----------------------------------|
E|-3----------------------------3--------------------------------------------|
   
   She said so.                     I'm in love with her and I feel fine."
   D*(10th fret;strum)                              C*(8th fret;strum)
e|----------------------------------10-10-10-10-10--8--8--8--8--8------------|
B|----------------------------------10-10-10-10-10--8--8--8--8--8------------|
G|------------------12-11-9----11---11-11-11-11-11--9--9--9--9--9------------|
D|----12-12-10--------------14------12-12-12-12-12--10-10-10-10-10-----------|
A|-------12----(12)-----------------12-12-12-12-12--10-10-10-10-10-----------|
E|-10-------------------------------10-10-10-10-10--8--8--8--8--8------------|
   
   G*(strum)
e|---------------------------------------------------------------------------|
B|---------------------------------------------------------------------------|
G|-------------5-4-2---4-----------------------------------------------------|
D|---5-5-3-----------7-------------------------------------------------------|
A|-----5---(5)---------------------------------------------------------------|
E|-3-------------------------------------------------------------------------|

Verse 2: 0:29-0:42
  "Baby says she's mine you know,  She tells me all the time you know,
   G*(strum)
e|---------------------------------------------------------------------------|
B|---------------------------------------------------------------------------|
G|-------------5-4-2---4--------------------5-4-2---4------------------------|
D|---5-5-3-----------7------------5-5-3-----------7--------------------------|
A|-----5---(5)----------------------5---(5)----------------------------------|
E|-3----------------------------3--------------------------------------------|
  
   She said so.                      I'm in love with her and I feel fine."
   D*(strum)                                        C*(strum)
e|----------------------------------10-10-10-10-10--8--8--8--8--8------------|
B|----------------------------------10-10-10-10-10--8--8--8--8--8------------|
G|------------------12-11-9----11---11-11-11-11-11--9--9--9--9--9------------|
D|----12-12-10--------------14------12-12-12-12-12--10-10-10-10-10-----------|
A|-------12----(12)-----------------12-12-12-12-12--10-10-10-10-10-----------|
E|-10-------------------------------10-10-10-10-10--8--8--8--8--8------------|

   G*(strum)
e|---------------------------------------------------------------------------|
B|---------------------------------------------------------------------------|
G|-------------5-4-2---4-----------------------------------------------------|
D|---5-5-3-----------7-------------------------------------------------------|
A|-----5---(5)---------------------------------------------------------------|
E|-3-------------------------------------------------------------------------|

Special Verse: 0:42-0:52
   "I'm so glad that she's my little girl.
   C*(strum) G*(strum) D*(strum) C*strum)
e|-3-------2---------0---------------2---------------------------------------|
B|-0-------3---------1---------------1---------------------------------------|
G|-0-------4---------0---------------2---------------------------------------|
D|-0-------4---------2---------------0---------------------------------------|
A|-2-------0---------3---------------0---------------------------------------|
E|-3-------0---------0---------------0---------------------------------------|
   She's so glad she's telling all the world."
   C*(strum) G*(strum) D*(strum) C*(strum)
e|-3--------2----------0---------------2-------------------------------------|
B|-0--------3----------1---------------1-------------------------------------|
G|-0--------4----------0---------------2-------------------------------------|
D|-0--------4----------2---------------0-------------------------------------|
A|-2--------0----------3---------------0-------------------------------------|
E|-3--------0----------0---------------0-------------------------------------|

Verse 3: 0:53-1:06
  "That her baby buys her things you know, he buys her diamond rings you know,
   G*(strum)
e|---------------------------------------------------------------------------|
B|---------------------------------------------------------------------------|
G|-------------5-4-2---4-------------------------------5-4-2---4-------------|
D|---5-5-3-----------7-----------------------5-5-3-----------7---------------|
A|-----5---(5)---------------------------------5---(5)-----------------------|
E|-3---------------------------------------3---------------------------------|
[ Tab from: http://www.guitartabs.cc/tabs/b/beatles/i_feel_fine_tab_ver_5.html ]
   She said so.                     She's in love with me and I feel fine."
   D*(strum)                                        C*(strum)
e|----------------------------------10-10-10-10-10--8--8--8--8--8------------|
B|----------------------------------10-10-10-10-10--8--8--8--8--8------------|
G|------------------12-11-9----11---11-11-11-11-11--9--9--9--9--9------------|
D|----12-12-10--------------14------12-12-12-12-12--10-10-10-10-10-----------|
A|-------12----(12)-----------------12-12-12-12-12--10-10-10-10-10-----------|
E|-10-------------------------------10-10-10-10-10--8--8--8--8--8------------|

Lead: 1:07-1:14
*Guitar two plays the lead while guitar one continues with the riff.
e|---------------------------------------------------------------------------|
B|-----6-----8-----6-------------6-----8-----6-------------------------------|
G|-5/7---7/9---5/7---7/5-3---5/7---7/9---5/7---7/5-3-------------------------|
D|-------------------------5-------------------------5-----------------------|
A|---------------------------------------------------------------------------|
E|---------------------------------------------------------------------------|

  Guitar one plays this:
e|---------------------------------------------------------------------------|
B|---------------------------------------------------------------------------|
G|-------------5-4-2---4-------------5-4-2---4-------------------------------|
D|---5-5-3-----------7-----5-5-3-----------7---------------------------------|
A|-----5---(5)---------------5---(5)-----------------------------------------|
E|-3---------------------3---------------------------------------------------|

At the end of the lead, guitar 2 stops, and guitar one plays this:
e|---------------------------------------------------------------------------|
B|---------------------------------------------------------------------------|
G|-------------12-11-9-------11----------------------------------------------|
D|----12-12-10---------13-14-------------------------------------------------|
A|-------12------------------------------------------------------------------|
E|-10------------------------------------------------------------------------|

Next, the intro is reapeated: 1:15-1:25
e|---------------------------------------------------------------------------|
B|---------------------------------------------------------------------------|
G|------------------12-11-9----11-------------------10-9-7----9--------------|
D|----12-12-10--------------14---------10-10-8-------------12----------------|
A|-------12----(12)-----------------------10---(10)--------------------------|
E|-10-----------------------------10/8---------------------------------------|
                           G*(strum)
e|---------------------------------------------------------------------------|
B|---------------------------------------------------------------------------|
G|---------------5-4-2---4-------------5-4-2---4-----------------------------|
D|-----5-5-3-----------7-----5-5-3-----------7-------------------------------|
A|-------5---(5)---------------5---(5)---------------------------------------|
E|-8/3---------------------3-------------------------------------------------|

Verse 2: 1:25-1:37
  "Baby says she's mine you know,  She tells me all the time you know,
   G*(strum)
e|---------------------------------------------------------------------------|
B|---------------------------------------------------------------------------|
G|-------------5-4-2---4--------------------5-4-2---4------------------------|
D|---5-5-3-----------7------------5-5-3-----------7--------------------------|
A|-----5---(5)----------------------5---(5)----------------------------------|
E|-3----------------------------3--------------------------------------------|
  
   She said so.                      I'm in love with her and I feel fine."
   D*(strum)                                        C*(strum)
e|----------------------------------10-10-10-10-10--8--8--8--8--8------------|
B|----------------------------------10-10-10-10-10--8--8--8--8--8------------|
G|------------------12-11-9----11---11-11-11-11-11--9--9--9--9--9------------|
D|----12-12-10--------------14------12-12-12-12-12--10-10-10-10-10-----------|
A|-------12----(12)-----------------12-12-12-12-12--10-10-10-10-10-----------|
E|-10-------------------------------10-10-10-10-10--8--8--8--8--8------------|

   G*(strum)
e|---------------------------------------------------------------------------|
B|---------------------------------------------------------------------------|
G|-------------5-4-2---4-----------------------------------------------------|
D|---5-5-3-----------7-------------------------------------------------------|
A|-----5---(5)---------------------------------------------------------------|
E|-3-------------------------------------------------------------------------|

Special Verse: 1:38-1:49
   "I'm so glad that she's my little girl.
   C*(strum) G*(strum) D*(strum) C*strum)
e|-3-------2---------0---------------2---------------------------------------|
B|-0-------3---------1---------------1---------------------------------------|
G|-0-------4---------0---------------2---------------------------------------|
D|-0-------4---------2---------------0---------------------------------------|
A|-2-------0---------3---------------0---------------------------------------|
E|-3-------0---------0---------------0---------------------------------------|
   She's so glad she's telling all the world."
   C*(strum) G*(strum) D*(strum) C*(strum)
e|-3--------2----------0---------------2-------------------------------------|
B|-0--------3----------1---------------1-------------------------------------|
G|-0--------4----------0---------------2-------------------------------------|
D|-0--------4----------2---------------0-------------------------------------|
A|-2--------0----------3---------------0-------------------------------------|
E|-3--------0----------0---------------0-------------------------------------|

Verse 3: 1:49-2:02
  "That her baby buys her things you know, he buys her diamond rings you know,
   G*(strum)
e|---------------------------------------------------------------------------|
B|---------------------------------------------------------------------------|
G|-------------5-4-2---4-------------------------------5-4-2---4-------------|
D|---5-5-3-----------7-----------------------5-5-3-----------7---------------|
A|-----5---(5)---------------------------------5---(5)-----------------------|
E|-3---------------------------------------3---------------------------------|

   She said so.                     She's in love with me and I feel fine."
   D*(strum)                                        C*(strum)
e|----------------------------------10-10-10-10-10--8--8--8--8--8------------|
B|----------------------------------10-10-10-10-10--8--8--8--8--8------------|
G|------------------12-11-9----11---11-11-11-11-11--9--9--9--9--9------------|
D|----12-12-10--------------14------12-12-12-12-12--10-10-10-10-10-----------|
A|-------12----(12)-----------------12-12-12-12-12--10-10-10-10-10-----------|
E|-10-------------------------------10-10-10-10-10--8--8--8--8--8------------|

    She's in love with me and I feel fine."
    D*(strum)        C*(strum)
e|---10-10-10-10-10--8--8--8--8--8------------|
B|---10-10-10-10-10--8--8--8--8--8------------|
G|---11-11-11-11-11--9--9--9--9--9------------|
D|---12-12-12-12-12--10-10-10-10-10-----------|
A|---12-12-12-12-12--10-10-10-10-10-----------|
E|---10-10-10-10-10--8--8--8--8--8------------|

Finally, fade out with this riff:

e|---------------------------------------------|
B|---------------------------------------------|
G|-------------5-4-2---4-----------------------|
D|---5-5-3-----------7-------------------------|
A|-----5---(5)---------------------------------|
E|-3-------------------------------------------|

| () Extra Note, sometimes played.  Can be ommited.
| /  slide up
| \  slide down
| h  hammer-on
| p  pull-off
| ~  vibrato
| +  harmonic
| x  Mute note

===============================================================================
Comments