Beatles - I Dig A Poney Chords & Tabs

 

I Dig A Poney Chords & Tabs

Beatles Chords & Tabs

Version: 1 Type: Bass Tab 0 ratings
1 star 2 stars 3 stars 4 stars 5 stars
comments

I Dig A Poney Bass Tab

   
----------------------------------PLEASE NOTE--------------------------------------#
#This file is the author's own work and represents their interpretation
of thesong. You may only use this file for private study, scholarship, orresearch. #
#----------------------------------------------------------------------------------#

I DIG A PONY
(Lennon/McCartney)

This is the bass guitar part of "I dig a pony" as played by Paul
McCartney.
It's the original version, not the one cuttet by Phil Spector and
published
on "Let it Be".
All the fingerings are in the correct position to the lyrics.
Submitted by: Mark_Twain@T-Online.de

Intro (also used as ending):


   G                 D
|------------------------------4--7--4--
|-----------2--5--2------4--7-----------
|-----2--5----------4/5-----------------
|--3------------------------------------



   A
|---------------------------2-----------------  (repeat)
|------------------2[h3]h4-----4--2-------2---
|-----------3h4----------------------3h4------
|--5--5--5------------------------------------



   G                 D
|------------------------------4--7--4--
|-----------2--5--2------4--7-----------
|-----2--5----------4/5-----------------
|--3------------------------------------


   A                                 G      Gdim7
|---------------------------2----------------------
|------------------2[h3]h4-----4--2----------------
|-----------3/4------------------------------------
|--5--5--5---------------------------3------4------
                                     All I want is


Verse:

   A                                            F#m
|----------------------2-----------------------------
|-----------------------------------------2-----4----
|--0--------------3/4---------------0--4-------------
|----------------------------------------------------
  


                          Bm          --------> G7
|------------------------------------------------------------------
|--2h4--2----------------------------------------------------------
|----------4--------------2--------------------------------------0-
|-----------------------------------------------3-------3[p0h]3----
       

[ Tab from: http://www.guitartabs.cc/tabs/b/beatles/i_dig_a_poney_btab.html ]
   Bm                        G7               E
|--------------------------------------------------------9\--9\----
|---------------------------------------------2--2--2--2---7---7---
|--1--2------------------------------------------------------------
|----------------------------3-------------------------------------
   


   A                                         F#m
|---------------------------------2------------------
|---------------------------------------2----4-------
|--0----0----0----3/4--0-------------4---------------
|----------------------------------------------------
  


                             Bm           --------> G7 
|------------------------------------------------------------------
|--2h4--2----------------------------------------------------------
|---------------4------------2-----------------------------------0-
|---------------------------------------------------3---3[p0h]3----
         


   Bm                       G7              E          E7
|------------------------------------------------------9-9-9-9-9-9-
|-------------------------------------------2--2--2--2-------------
|--1--2------------------------------------------------------------
|---------------------------3--------------------------------------
 


   G        D           A
|----------------2--7------
|-----------3/4------------
|-----2--5-----------------
|--3--------------------5~-
   


   G                     D
|-----------------------------------4---7----4-----------------
|-------------2----5--2-------4--7-----------------------------
|----2--5----------------4/5-----------------------------------
|--3--------------------------------------------5~-------------





-------------------------------------------------------------------
Tab Special Notations:
----0----  play the open string ('fret zero')
----5----  play fret five
----5~---  play fret five with vibrato
---5/7---  play fret five, slide up to fret seven
---7\5---  play fret seven, slide down to fret five
--8b(9)--  play fret eight, bend the string (at fret eight) to 
             reach the pitch of fret nine
--b(9)8--  play fret eight already bent to the pitch of fret nine,
             unbending until it reaches the normal pitch of fret
             eight
----h7---  hammer-on to fret seven
----p5---  pull-off to fret five
---/7----  slide up to fret 7 (the starting fret of the slide is
             undefined, judge by ear)
---15\---  play fret 15, slide down (the ending fret of the slide      
   
             is undefined, judge by ear)
---0h3---  play the open string and immediately hammer-on to fret
             three
---7p5---  play fret seven and immediately pull-off to fret five
---[4]---  play fret 4 if you are able to (not really necessary
  
Comments