Beatles - Honey Pie Chords & Tabs

 

Honey Pie Chords & Tabs

Beatles Chords & Tabs

Version: 1 Type: Bass Tab 0 ratings
1 star 2 stars 3 stars 4 stars 5 stars
comments

Honey Pie Bass Tab

#----------------------------------PLEASE NOTE---------------------------------#
#This file is the author's own work and represents their interpretation of the #
#song. You may only use this file for private study, scholarship, or research. #
#------------------------------------------------------------------------------#
Content-Type: text/plain; name="Honey_Pie_btab.txt"
Content-Disposition: attachment; filename="Honey_Pie_btab.txt"



The Beatles - Honey Pie Bass Tab



I think I have worked this out OK,

any suggestions, please send them to:

stephenmurphy@hotmail.com  or

murphyst@rte.ie



G------------------------------------------|
D----5---------5---------------------------|
A---------5---------5----6---------7-------|
E-----------------------------6---------7--|




[ Tab from: http://www.guitartabs.cc/tabs/b/beatles/honey_pie_btab.html ]
G-----------------------------------------|
D--7--------------------5-----------------|
A-------7--6--5--------------5----7----5--|
E------------------7----------------------|



G----------------------------------------|
D--5---------5---------------------------|
A-------5---------5----6---------7-------|
E---------------------------6---------7--|





G-----------------------------------------|
D--7--------------------5-----------------|
A-------7--6--5--------------5----4----2--|
E------------------7----------------------|



'She became a legend of the silver screen' part:

  

G---------------------------------|
D-----------------5--5--7--9--10--|
A--3----4----5--------------------|
E---------------------------------|





G----------------------------------------|
D--10--(10)-(10)-(10)--9--(9)--(9)--(9)--|
A----------------------------------------|
E----------------------------------------|





G----------------------------------------|
D----7----(7)----------5-----------------|
A----------------5--7--------------------|
E----------------------------------------|


Comments