Beatles - Hold Me Tight Chords & Tabs

 

Hold Me Tight Chords & Tabs

Beatles Chords & Tabs

Version: 2 Type: Tab 0 ratings
1 star 2 stars 3 stars 4 stars 5 stars
comments

Hold Me Tight Tab

   
----------------------------------------------------------------------
  THE BEATLES - HOLD ME TIGHT (Lennon/McCartney) From WITH THE BEATLES 
                album. Released on 22nd November 1963.
----------------------------------------------------------------------
  Tabbed by:PJVillanueva


It feels so right now, hold me tight,
Tell me I'm the only one,
And then I might,
Never be the lonely one.
So hold me tight, to-night, to-night,
It's you,
You you you - oo-oo - oo-oo.
Hold me tight,
Let me go on loving you,
To-night to-night,
Making love to only you,
So hold me tight, to-night, to-night,
It's you,
You you you - oo-oo - oo-oo.
Don't know what it means to hold you tight,
Being here alone tonight with you,
It feels so right now, feels so right now.
Hold me tight,
Tell me I'm the only one,
And then I might,
Never be the only one,
So hold me tight, to-night, to-night,
It's you,
You you you - oo-oo - oo-oo.
Don't know what it means to hold you tight,
Being here alone tonight with you,
It feels so right now, feels so right now.
Hold me tight,
Let me go on loving you,
To-night, to-night,
Making love to only you,
So hold me tight, to-night, to-night,
It's you,
You you you - oo-oo - oo-oo.



E|----------------|----------------|----------------|----------------|
B|----------------|----------------|----------------|----------------|
G|----------------|----------------|----------------|----------------|
D|----------------|----------------|----------------|----------------|
A|----------------|----------------|--------2-2-----|2---2---2---2---|
E|----------------|----------------|0-0-3-4-----4-0-|----------------|
                                                  It feels so right now 
E|----------------|----------------|----------------|----------------|
B|----------------|----------------|----------------|----------------|
G|----------------|----------------|----------------|----------------|
D|----------------|----------------|----------------|----------------|
A|----------------|----------------|--------5-5-----|6---6---6---6---|
E|----------------|----------------|4-4-6-7-----7-4-|----------------|



E|----------------|----------------|----------------|----------------|
B|----------------|----------------|----------------|----------------|
G|----------------|----------------|----------------|----------------|
D|----------------|--------2-2-----|----------------|--------4-4-----|
A|--------2-2-----|----3-4-----4---|--------4-4-----|----5-6-----7-7-|
E|0-0-3-4-----4-3-/5-5-----------0-/2-2-5-6-----6-5-/7-7-------------|
  Hold     me tight                 Tell me I'm the only one  and         
E|----------------|----------------|----------------|----------------|
B|----------------|----------------|----------------|----------------|
G|----------------|----------------|----------------|----------------|
D|----------------|--------5-5-----|----------------|--------7-7-6---|
A|--------5-5-----|4-4-6-7-----7---|--------7-7-----|6-6-8-9---------|
E|4-4-6-7-----7---|----------------|6-6-8-9-----9---|----------------|



E|----------------|----------------|----------------|----------------|
B|----------------|----------------|----------------|----------------|
G|----------------|----------------|----------------|----------------|
D|----------------|--------2-2-----|----------------|--------4-4-----|
A|--------2-2-----|----3-4-----4---|--------4-4-----|----5-6-----6---|
E|0-0-3-4-----4-3-/5-5-----------0-/2-2-5-6-----6-2-/7-7-----------7-|
  then         I might                 never be  the lonely one    So
E|----------------|----------------|----------------|----------------|
B|----------------|----------------|----------------|----------------|
G|----------------|----------------|----------------|----------------|
D|----------------|--------5-5-----|----------------|--------7-7-----|
A|--------5-5-----|4-4-6-7-----7-7-|--------7-7-----|6-6-8-9-----9---|
E|4-4-6-7-----7---|----------------|6-6-8-9-----9---|----------------|



E|----------------|----------------|----------------|----------------|
B|----------------|----------------|----------------|----------------|
G|----------------|----------------|----------------|----------------|
D|----------------|----------------|2-2----2-2-2--2-|2-2----2-2-2--2-|
A|--------2-2-----|--------2-2-----|0-0----0-0-0--0-|0-0----0-0-0--0-|
E|0-0-3-4-----3-4-|0-0-3-4-----4-0-|----------------|----------------|
  hold          me tight         tonight           tonight        It's
E|----------------|----------------|----------------|----------------|
B|----------------|----------------|----------------|----------------|
G|----------------|----------------|----------------|----------------|
D|----------------|----------------|2-2----2-2-2----|2---2--2-2-2----|
A|--------5-5-----|--------5-5-----|4-4----4-4-4----|3---3--3-3-3----|
E|4-4-6-7-----7---|4-4-6-7-----7---|----------------|----------------|



E|----------------|----------------|----------------|----------------|
B|----------------|----------------|----------------|----------------|
G|----------------|----------------|----------------|----------------|
D|------------2---|------------2---|------------2---|--------4-------|
A|--------2-------|0-0-3-----------|--------2-2-----|----5-6---------|
E|0-0-3-4---------|----------------|0-0-3-4---------|7-7-------------|
  you                      you  you you   oo-oo   oo-oo   
E|----------------|----------------|----------------|----------------|
B|----------------|----------------|----------------|----------------|
G|----------------|----------------|----------------|----------------|
D|----------------|2-2---2---2-2---|----------------|--------7-------|
A|--------5-------|0-0---3---0-0---|--------5-------|6-6-8-9---------|
E|4-4-6-7-----7---|----------------|4-4-6-7-----7---|----------------|



E|----------------|----------------|----------------|----------------|
B|----------------|----------------|----------------|----------------|
G|----------------|----------------|----------------|----------------|
D|----------------|--------2-2-----|----------------|--------4-4-----|
A|--------2-2-----|----3-4-----4---|--------4-4-----|----5-6-----6---|
E|0-0-3-4-----4-3-/5-5-----------0-/2-2-5-6-----6-2-/7-7-----------7-|
  Hold         me tight,               Let me go on  loving you, To-night
E|----------------|----------------|----------------|----------------|
B|----------------|----------------|----------------|----------------|
G|----------------|----------------|----------------|----------------|
D|----------------|--------5-5-----|----------------|--------7-7-6---|
A|--------5-5-----|4-4-6-7-----7---|--------7-7-----|6-6-8-9---------|
E|4-4-6-7-----7---|----------------|6-6-8-9-----9---|----------------|




E|----------------|----------------|----------------|----------------|
B|----------------|----------------|----------------|----------------|
G|----------------|----------------|----------------|----------------|
D|----------------|--------2-2-----|----------------|--------4-4-----|
A|--------2-2-----|----3-4-----4---|--------4-4-----|----5-6-----6---|
E|0-0-3-4-----4-3-/5-5-----------0-/2-2-5-6-----6-2-/7-7-----------7-|
              to-night,               Making love to only you,     So
E|----------------|----------------|----------------|----------------|
B|----------------|----------------|----------------|----------------|
G|----------------|----------------|----------------|----------------|
D|----------------|--------5-5-----|----------------|--------7-7-----|
A|--------5-5-----|4-4-6-7-----7---|--------7-7-----|6-6-8-9-----9---|
E|4-4-6-7-----7---|----------------|6-6-8-9-----9---|----------------|
  


E|----------------|----------------|----------------|----------------|
B|----------------|----------------|----------------|----------------|
G|----------------|----------------|----------------|----------------|
D|----------------|----------------|2-2----2-2-2--2-|2-2----2-2-2--2-|
A|--------2-2-----|--------2-2-----|0-0----0-0-0--0-|0-0----0-0-0--0-|
E|0-0-3-4-----3-4-|0-0-3-4-----4-0-|----------------|----------------|
  hold        me tight,        to-night,        to-night,        It's
E|----------------|----------------|----------------|----------------|
B|----------------|----------------|----------------|----------------|
G|----------------|----------------|----------------|----------------|
D|----------------|----------------|2-2----2-2-2----|2---2--2-2-2----|
A|--------5-5-----|--------5-5-----|4-4----4-4-4----|3---3--3-3-3----|
E|4-4-6-7-----7---|4-4-6-7-----7---|----------------|----------------|



E|----------------|----------------|----------------|----------------|
B|----------------|----------------|----------------|----------------|
G|----------------|----------------|----------------|----------------|
D|------------2---|--------2---2---|----------------|----------------|
A|--------2-------|0-0-3-0---------|--------2-------|--------5-5-----|
E|0-0-3-4---------|----------------|0-0-3-4-----4---|3-3-6-7-----7---|
  you,                      You you you - oo-oo - oo-oo.         Don't
E|----------------|----------------|----------------|----------------|
B|----------------|----------------|----------------|----------------|
G|----------------|----------------|----------------|----------------|
D|----------------|2-2---2---2-2---|----------------|----------------|
A|--------5-------|0-0---3---0-0---|--------5-------|--------8-8-----|
E|4-4-6-7-----7---|----------------|4-4-6-7-----7---|7-7-910-----10--|



E|----------------|----------------|----------------|----------------|
B|----------------|----------------|----------------|----------------|
G|----------------|----------------|----------------|----------------|
D|----------------|----------------|----------------|--------2-2-----|
A|--------2-2-----|--------5-5-----|--------2-2-----|0-0-3-4-------0-|
E|0-0-3-4-----4---|3-3-6-7-----7---|0-0-3-4-----4---|----------------|
  know              what it means to hold you tight,     Being here a..
E|----------------|----------------|----------------|----------------|
B|----------------|----------------|----------------|----------------|
G|----------------|----------------|----------------|----------------|
D|----------------|----------------|----------------|--------5-5-----|
A|--------5-5-----|--------8-8-----|--------5-5-----|4-4-6-7---------|
E|4-4-6-7-----7---|7-7-910-----10--|4-4-6-7-----7---|----------------|


[ Tab from: http://www.guitartabs.cc/tabs/b/beatles/hold_me_tight_tab_ver_2.html ]
E|----------------|----------------|----------------|
B|----------------|----------------|----------------|
G|----------------|----------------|----------------|
D|----------------|----------------|--------4-4-----|
A|--------4-4-----|--------4-4-4---|----5-6-----6---|
E|2-2-5-6-------0-|2-2-5-6---------|7-7-------------|
  lone tonight with you,        It feels so right now
E|----------------|----------------|----------------|
B|----------------|----------------|----------------|
G|----------------|----------------|----------------|
D|----4---4-4-----|----2---2-2-2---|--------7-7-----|
A|----4---4-4-----|----4---4-4-4---|6-6-8-9-----9---|
E|----------------|----------------|----------------|      



E|----------------|----------------|----------------|----------------|
B|----------------|----------------|----------------|----------------|
G|----------------|----------------|----------------|----------------|
D|----------------|--------2-2-----|----------------|--------4-4-----|
A|--------2-2-----|----3-4-----4---|--------4-4-----|----5-6-----7---|
E|0-0-3-4-----4-3/|5-5-------------|2-2-5-6-----6-5/|7-7-------------|
  Hold     me tight                    Tell me I'm the only one   and
E|----------------|----------------|----------------|----------------|
B|----------------|----------------|----------------|----------------|
G|----------------|----------------|----------------|----------------|
D|----------------|--------5-5-----|----------------|--------7-7-6---|
A|--------5-5-----|4-4-6-7-----7---|--------7-7-----|6-6-8-9---------|
E|4-4-6-7-----7---|----------------|6-6-8-9-----9---|----------------|



E|----------------|----------------|----------------|----------------|
B|----------------|----------------|----------------|----------------|
G|----------------|----------------|----------------|----------------|
D|----------------|--------2-2-----|----------------|--------4-4-----|
A|--------2-2-----|----3-4-----4---|--------4-4-----|----5-6-----6---|
E|0-0-3-4-----4-3-/5-5-----------0-/2-2-5-6-----6-2-/7-7-----------7-|
  then        I might                  never be the lonely one    So 
E|----------------|----------------|----------------|----------------|
B|----------------|----------------|----------------|----------------|
G|----------------|----------------|----------------|----------------|
D|----------------|--------5-5-----|----------------|--------7-7-6---|
A|--------5-5-----|4-4-6-7-----7---|--------7-7-----|6-6-8-9---------|
E|4-4-6-7-----7---|----------------|6-6-8-9-----9---|----------------|



E|----------------|----------------|----------------|----------------|
B|----------------|----------------|----------------|----------------|
G|----------------|----------------|----------------|----------------|
D|----------------|----------------|2-2----2-2-2--2-|2-2----2-2-2--2-|
A|--------2-2-----|--------2-2-----|0-0----0-0-0--0-|0-0----0-0-0--0-|
E|0-0-3-4-----3-4-|0-0-3-4-----4-0-|----------------|----------------|
  hold        me tight          tonight          tonight        It's
E|----------------|----------------|----------------|----------------|
B|----------------|----------------|----------------|----------------|
G|----------------|----------------|----------------|----------------|
D|----------------|----------------|2-2----2-2-2----|2---2--2-2-2----|
A|--------5-5-----|--------5-5-----|4-4----4-4-4----|3---3--3-3-3----|
E|4-4-6-7-----7-7-|4-4-6-7-----7-7-|----------------|----------------|



E|----------------|----------------|----------------|----------------|
B|----------------|----------------|----------------|----------------|
G|----------------|----------------|----------------|----------------|
D|----------------|------------2---|----------------|--------4-------|
A|--------2-2-2---|0---3-3---------|--------2---2---|----5-6---------|
E|0-0-3-4---------|----------------|0-0-3-4---------|7-7-------------|
  you                      you  you you   oo-oo   oo-oo          don't 
E|----------------|----------------|----------------|----------------|
B|----------------|----------------|----------------|----------------|
G|----------------|----------------|----------------|----------------|
D|----------------|2-2-2---2-2-2---|----------------|--------7-------|
A|--------5-5-5---|0-0-3---0-0-3---|--------5---5---|6-6-8-9---------|
E|4-4-6-7---------|----------------|4-4-6-7---------|----------------|



E|----------------|----------------|----------------|----------------|
B|----------------|----------------|----------------|----------------|
G|----------------|----------------|----------------|----------------|
D|----------------|----------------|----------------|--------2-2-2---|
A|--------2-2-2---|--------5-5-----|--------2-2-2---|0-0-3-4---------|
E|0-0-3-4---------|3-3-6-7-----7---|0-0-3-4---------|--------------0-|
  know              what it means to hold you tight,     Being here a..
E|----------------|----------------|----------------|----------------|
B|----------------|----------------|----------------|----------------|
G|----------------|----------------|----------------|----------------|
D|----------------|----------------|----------------|--------5-5-----|
A|--------5-5-5---|--------8-8-----|--------5-5-----|4-4-6-7-----7---|
E|4-4-6-7---------|7-7-910-----10--|4-4-6-7-----7---|----------------|



E|----------------|----------------|----------------|
B|----------------|----------------|----------------|
G|----------------|----------------|----------------|
D|----------------|----------------|--------4-4-----|
A|----4-4-----4-4-|--------4-4-4---|----5-6-----6---|
E|2-2-----2-2-----|2-2-5-6---------|7-7-------------|
  lone tonight with you,        It feels so right now
E|----------------|----------------|----------------|
B|----------------|----------------|----------------|
G|----------------|----------------|----------------|
D|----4-4-----4---|--------2-2-2---|--------7-7-----|
A|----4-4-----4---|--------4-4-4---|6-6-8-9-----9---|
E|----------------|----------------|----------------|  



E|----------------|----------------|----------------|----------------|
B|----------------|----------------|----------------|----------------|
G|----------------|----------------|----------------|----------------|
D|----------------|--------2-2-----|----------------|--------4-4-----|
A|--------2-2-----|----3-4-----4---|--------4-4-----|----5-6-----6---|
E|0-0-3-4-----4-3-/5-5-----------0-/2-2-5-6-----6-2-/7-7-----------7-|
  Hold         me tight,               Let me go on  loving you, To-night
E|----------------|----------------|----------------|----------------|
B|----------------|----------------|----------------|----------------|
G|----------------|----------------|----------------|----------------|
D|----------------|--------5-5-----|----------------|--------7-7-6---|
A|--------5-5-----|4-4-6-7-----7---|--------7-7-----|6-6-8-9---------|
E|4-4-6-7-----7---|----------------|6-6-8-9-----9---|----------------|



E|----------------|----------------|----------------|----------------|
B|----------------|----------------|----------------|----------------|
G|----------------|----------------|----------------|----------------|
D|----------------|--------2-2-----|----------------|--------4-4-----|
A|--------2-2-----|----3-4-----4---|--------4-4-----|----5-6-----6---|
E|0-0-3-4-----4-3-/5-5-----------0-/2-2-5-6-----6-2-/7-7-----------7-|
              to-night,               Making love to only you,     So
E|----------------|----------------|----------------|----------------|
B|----------------|----------------|----------------|----------------|
G|----------------|----------------|----------------|----------------|
D|----------------|--------5-5-----|----------------|--------7-7-----|
A|--------5-5-----|4-4-6-7-----7---|--------7-7-----|6-6-8-9---------|
E|4-4-6-7-----7---|----------------|6-6-8-9-----9---|----------------|



E|----------------|----------------|----------------|----------------|
B|----------------|----------------|----------------|----------------|
G|----------------|----------------|----------------|----------------|
D|----------------|----------------|2-2-----2---2---|2-2----2-2-2--2-|
A|--------2-------|--------2-2-----|0-0-----0---0---|0-0----0-0-0--0-|
E|0-0-3-4-----3-4-|0-0-3-4-----4-0-|----------------|----------------|
  hold        me tight,        to-night,        to-night,        It's
E|----------------|----------------|----------------|----------------|
B|----------------|----------------|----------------|----------------|
G|----------------|----------------|----------------|----------------|
D|----------------|----------------|2-2----2-2-2----|2---2--2-2-2----|
A|--------5-------|--------5-5-----|4-4----4-4-4----|3---3--3-3-3----|
E|4-4-6-7-----7---|4-4-6-7-----7---|----------------|----------------|



E|----------------|----------------|----------------|----------------|
B|----------------|----------------|----------------|----------------|
G|----------------|----------------|----------------|----------------|
D|----------------|----------------|----------------|----------------|
A|--------2-2-----|0-0-3-3-0-0-3---|--------2-2-----|--------5-5-----|
E|0-0-3-4-----4---|----------------|0-0-3-4-----4---|3-3-6-7-----7---|
  you,                      You you you - oo-oo - oo-oo.           oo-
E|----------------|----------------|----------------|----------------|
B|----------------|----------------|----------------|----------------|
G|----------------|----------------|----------------|----------------|
D|----------------|2-2---2---2-2---|----------------|----------------|
A|--------5-5-----|0-0---3---0-0---|--------5-------|--------8-8-----|
E|4-4-6-7-----7---|----------------|4-4-6-7-----7---|7-7-910-----10--|


  Ritardando                        (. 
E|----------------|----------------|0---------------|----------------|
B|----------------|----------------|0---------------|----------------|
G|----------------|----------------|1---------------|----------------|
D|----------------|----------------|2---------------|----------------|
A|--------2-2-----|--------5-5-----|2---------------|----------------|
E|0-0-3-4-----4---|3-3-6-7-----7---|0---------------|----------------|
  oo               you           oo-oo   
E|----------------|----------------|----------------|----------------|
B|----------------|----------------|----------------|----------------|
G|----------------|----------------|9---------------|----------------|
D|----------------|----------------|9---------------|----------------|
A|--------5-5-----|--------8-8-----|7---------------|----------------|
E|4-4-6-7-----7---|7-7-910-----10--|----------------|----------------|


        B  Bend
        R  Release
        /  slide up
        \  slide down
        H  hammer-on
        P  pull-off
        ~  vibrato
        +  harmonic
        x  Mute note
        . - play note like a dot in standard notation
        ^ - ties two notes together
Comments