Beatles - Hey Jude Chords & Tabs

 

Hey Jude Chords & Tabs

Beatles Chords & Tabs

Version: 3 Type: Tab 0 ratings
1 star 2 stars 3 stars 4 stars 5 stars
comments

Hey Jude Tab

   
---------------------------------------------------------------------

   THE BEATLES - HEY JUDE (Leonn/McCartney) Released as a single with 
                 REVOLUTION as B side on 30th August 1968.
 
---------------------------------------------------------------------

   Tabbed by:PJVillanueva








Hey Jude, don't make it bad. 
Take a sad song and make it better. 
Remember to let her into your heart, 
Then you can start to make it better. 

Hey Jude, don't be afraid. 
You were made to go out and get her. 
The minute you let her under your skin, 
Then you begin to make it better. 

And anytime you feel the pain, hey Jude, refrain, 
Don't carry the world upon your shoulders. 
For well you know that it's a fool who plays it cool 
By making his world a little colder. 

Hey Jude, don't let me down. 
You have found her, now go and get her. 
Remember to let her into your heart, 
Then you can start to make it better. 

So let it out and let it in, hey Jude, begin, 
You're waiting for someone to perform with. 
And don't you know that it's just you, hey Jude, you'll do, 
The movement you need is on your shoulder. 

Hey Jude, don't make it bad. 
Take a sad song and make it better. 
Remember to let her under your skin, 
Then you'll begin to make it 
Better better better better better better, oh. 

Na na na, na na na na, na na na, hey Jude... 








Use a capo on the first fret.




                                                           Hey 


                                     
  E                               B                       B5  B6
e|0------ 0------ 0------ 0------|------- ------- ------- -------|
B|0-------0-------0-------0------|-------------------------------|
G|1-------1-------1-------1------|4-------4-------4-------4------|
D|2-------2-------2-------2------|4-------4-------4-------4---6--|
A|-------------------------------|6-------6-------6-------2------|
E|0-------0-------0-------0------|7-------7-------7--------------|
 Jude,              don't make it bad.                     Take a




  B7      B11                     E
e|------- 0------ 0------ 0------|0------ 0------ 0------ 0------|
B|0-------0-------0-------0------|0-------0-------0-------0------|
G|2-------2-------2-------2------|1-------1-------1-------1------|
D|1-------1-------1-------1------|2-------2-------2-------2------|
A|2-------2-------2-------2------|-------------------------------|
E|-------------------------------|0-------0-------0-------0------|
  sad     song        and make it better.                    Re.. 




  A                               E
e|0------ 0------ 0------ 0------|0------ 0------ 0------ 0------|
B|2-------2-------2-------2------|0-------0-------0-------0------|
G|2-------2-------2-------2------|1-------1-------1-------1------|
D|2-------2-------2-------2------|2-------2-------2-------2------|
A|0-------0-------0-------0------|-------------------------------|
E|-------------------------------|0-------0-------0-------0------|
  member     to let her into your heart,          Then you can start 




  B                               E
e|------- ------- ------- -------|0------ 0------ 0------ -------|
B|-------------------------------|0-------0-------0--------------|
G|4-------4-------4-------4------|1-------1-------1--------------|
D|4-------4-------4-------4------|2-------2-------2--------------|
A|6-------6-------6-------6------|-------------------------------|
E|7-------7-------7-------7------|0-------0-------0--------------|
             to   make it    better.                      Hey
                                                             




  E                               B                       B5  B6
e|0------ 0------ 0------ 0------|------- ------- ------- -------|
B|0-------0-------0-------0------|-------------------------------|
G|1-------1-------1-------1------|4-------4-------4-------4------|
D|2-------2-------2-------2------|4-------4-------4-------4---6--|
A|2-------2-------2-------2------|6-------6-------6-------2------|
E|0-------0---0---0-------0---0--|7-------7-------7--------------|
 Jude,              don't be  afraid.                     You were 
e|------- 0---0-- 0------ 0------|------- 2---2-2 ------- 2---2--|
B|0---0---0---0---0---0---0---0-0|0---0---0---0-0---------0---0--|
G|1---1---1---1---1---1---1---1-1|2---2---2---2-2-2---2---2---2--|
D|2---2---2---2---2---2---2---2-2|1---1---1---1-1-1---1---1---1--|
A|2---2---2---2---2---2---2---2-2|2---2---2---2-2----------------|
E|0---0---0---0---0---0---0---0-0|----------------2---2----------|






  B7      B11                     E
e|------- 0------ 0------ 0------|0------ 0------ 0------ 0------|
B|0-------0-------0-------0------|0-------0-------0-------0------|
G|2-------2-------2-------2------|1-------1-------1-------1------|
D|1-------1-------1-------1------|2-------2-------2-------2------|
A|2-------2-------2-------2------|2-------2-------2-------2------|
E|-------------------------------|----0-------0-------0-------0--|
  made    to         go   out and get her. 
e|2---2-2 2---2-2 ------- 2---2--|------- 0---0-0 ------- 0---0--|
B|0---0-0-0---0-0---------0---0--|0---0---0---0-0-0---0---0---0--|
G|2---2-2-2---2-2-2---2---2---2--|1---1---1---1-1-1---1---1---1--|
D|1---1-1-1---1-1-1---1---1---1--|2---2---2---2-2-2---2---2---2--|
A|2---2-2-2---2-2----------------|2---2---2---2-2-2---2---2---2--|
E|----------------2---2----------|0---0---0---0-0-0---0---0---0--|






  A                               E
e|0------ 0------ 0------ 0------|0------ 0------ 0------ 0------|
B|2-------2-------2-------2------|0-------0-------0-------0------|
G|2-------2-------2-------2------|1-------1-------1-------1------|
D|2-------2-------2-------2------|2-------2-------2-------2------|
A|0---0-------0-------0-------0--|-------------------------------|
E|-------------------------------|0---0-------0---0---0-------0--|
  minute    you let her under your skin,          Then you begin 
 (Aaaaaaaaaaaaaaaaaaaaaaaaaaaaaaaaaaaaaaaaaaaaaaaaaaaaaaaaaaaaaaa
e|------- 0---0-0 ------- 0---0--|0------ 0---0-0 ------- 0---0--|
B|2---2---2---2-2-2---2---2---2--|0-------0---0-0---------0---0--|
G|2---2---2---2-2-2---2---2---2--|1---1---1---1-1---------1---1--|
D|2---2---2---2-2-2---2---2---2--|2---2---2---2-2-2---2---2---2--|
A|0---0---0---0-0-0---0---0---0--|2---2---2---2-2-2---2---2---2--|
E|----------------0---0----------|0---0---0---0-0-0---0---0---0--|






  B                               E                           Emaj7
e|------- ------- ------- -------|0------ 0------ 0------ 0---0--|
B|-------------------------------|0-------0-------0-------0---4--|
G|4-------4-------4-------4------|1-------1-------1-------1---1--|
D|4-------4-------4-------4------|2-------2-------2-------2---2--|
A|6-------6-------2-------2------|-------------------------------|
E|7---7-------7---2---2-------2--|0---0-------0-------0-------0--|
             to   make it    better. 
  aaaaaaaaaaaaaaaaaaaaahhhh  better)
e|------- 2-----2 ------- 2-----2|------- 0------ ------- 0-----0|
B|--------0-----0---------0-----0|--------0---------------0-----0|
G|2---2---2-----2---------2-----2|--------1---------------1-----1|
D|1---1---1-----1---------1-----1|2---2---2-----------2---2-----2|
A|2---2---2-----2----------------|2---2---2-----------2---2-----2|
E|----------------2---2----------|0---0---0-----------0---0-----0|






  E7                              A               Amaj7
e|0------ 0------ 0------ 0------|0------ 0------ ------- -------|
B|3-------3-------3-------3------|2-------2-------5-------5------|
G|1-------1-------1-------1------|2-------2-------2-------2------|
D|2-------2-------2-------2------|2-------2-------2-------2------|
A|-------------------------------|0---0---0---0------------------|
E|0---0-------0-------0-------0--|----------------4---4---4---4--|
      And anytime    you feel the pain,   hey Jude,       refrain, 
e|------- ------- ------- -------|0---0-- 0------ ------- -------|
B|--------3---------------3------|2---2---2-------5---5---5------|
G|--------1---------------1------|2---2---2-------6---6---6------|
D|2---2---2-------2---2---2------|2---2---2-------6---6---6------|
A|2---2---2-------2---2---2------|0---0---0-------4---4---4------|
E|0---0---0-------0---0---0------|-------------------------------|






  F#m             F#m7            B7
e|------- ------- ------- -------|------- ------- ------- -------|
B|2---2---2-------2---2---2------|0-------0-------0-------0------|
G|2---2---2-------2---2---2------|2-------2-------2-------2------|
D|4---4---4-------4---4---4------|1-------1-------1-------1------|
A|-------------------------------|2---2---2----------------------|
E|2---2---2-------0---0---0------|----------------2---2---2------|
          Don't carry     the world       upon            your shoul.. 
e|------- ------- ------- -------|------- 2-----2 ------- 2------|
B|5---5---5-------5---5---5------|--------0-----0---------0------|
G|2---2---2-------2---2---2------|2---2---2-----2-2---2---2------|
D|4---4---4-------4---4---4------|1---1---1-----1-1---1---1------|
A|4---4---4-------4---4---4------|2---2---2-----2----------------|
E|2---2---2-------0---0---0------|----------------2---2---2------|






  E                           E6  E7
e|0------ ----0-- 0---0-- 0---0--|0------ 0------ ----0-- 0------|
B|0-----------0---0---0---0---0--|3-------3-----------3---3------|
G|1-----------1---1---1---1---1--|1-------1-----------1---1------|
D|2-----------2---2---2---2---2--|2-------2-----------2---2------|
A|-------------------------------|-------------------------------|
E|0-----------0---0---0---0---0--|0-------0-----------0---0------|
  ....ders.                         For well you know that it's a fool
e|------- 0-----0 ------- 0------|------- 0------ ------- 0------|
B|--------0-----0---------0------|--------3---------------3------|
G|--------1-----1---------1------|--------1---------------1------|
D|2---2---2-----2-2---2---2------|2---2---2-------2---2---2------|
A|2---2-----------2---2----------|2---2-----------2---2----------|
E|0---0-----------0---0----------|0---0-----------0---0----------|






  A               Amaj7           F#m             F#m7 
e|----0-- 0---0-- ------- -------|------- ------- ------- -------|
B|----2---2---2---5-------5---5--|2---2---2---2---2-------2---2--|
G|----2---2---2---2-------2---2--|2---2---2---2---2-------2---2--|
D|----2---2---2---2-------2---2--|4---4---4---4---4-------4---4--|
A|----0---0---0------------------|-------------------------------|
E|----------------4-------4---4--|2---2---2---2---0-------0---0--|
          who plays       it cool         By making       his world 
 (Ooooooooooooooooooooooooooooooooooooooooooooooooooooooooooooooo
e|------- 0------ ------- -------|------- 2------ ------- 2------|
B|--------2---------------5------|--------5---------------5------|
G|2---2---2-------6---6---6------|2---2---2-------2---2---2------|
D|2---2---2-------6---6---6------|4---4---4-------4---4---4------|
A|0---0---0-------4---4---4------|4---4---4-------4---4---4------|
E|----------------4---4---4------|2---2---2-------0---0---0------|






  B7                              E
e|------- ------- ------- -------|0------ ----0-- 0------ 0------|
B|0-------0-------0-------0------|0-----------0---0-------0------|
G|2-------2-------2-------2------|1-----------1---1-------1------|
D|1-------1-------1-------1------|2-----------2---2-------2------|
A|2---2---2-------2--------------|-------------------------------|
E|------------------------2---0--|0-----------0---0-------0------|
          a little            colder.                 Na  na  na
  oohhhhhh)                                          (Na  na  na
e|------- 2-----2 ------- 2------|------- 0-----0 ------- 0------|
B|--------0-----0---------0------|--------0-----0---------0----0-|
G|2---2---2-----2-2---2---2------|--------1-----1---------1----1-|
D|1---1---1-----1-1---1---1------|2---2---2-----2-2---2---2----2-|
A|2---2---2-----2---------2------|2---2-----------2---2--------2-|
E|----------------2---2----------|0---0-----------0---0----------| 

e|------- ------- ------- -------|------- ------- ------- -------|
B|-------------------------------|------------------------0---2--|
G|-------------------------------|--------------------1---1---2--|
D|-------------------------------|--------------------2----------|
A|-------------------------------|-------------------------------|
E|-------------------------------|-------------------------------|






  E7              B7  B11 B7                      B   B6
e|0------ 0------ ----0-- 2------|2------ ------- 2---4--|
B|3-------3-------4---0---0------|0---------------4---4--|
G|1-------1-------2---2---2------|2---------------4---4--|
D|2-------2-------1---1---1------|1---------------4---4--|
A|----------------2---2---2------|2-----------2---2---2--|
E|0-------0----------------------|-----------------------|
  Na      na      na  na  na      na
  Na      na      na  na  na      na)
e|0------ 0------ 2---2-- 2-----2|2------ 2------ 2------|
B|0-------0-------0---0---0-----0|0-------0-------0------|
G|1-------1-------2---2---2-----2|2-------2-------2------|
D|2-------2-------1---1---1-----1|1-------1-------1------|
A|2-------2-------2---2---2-----2|2-------2-------2------|
E|0-------0----------------------|-----------------------|

e|------- ------- ------- -------|------- ------- -------|
B|3-------3-------4---5---7------|7----------------------|
G|4-------4-------4---6---8------|8----------------------|
D|-------------------------------|-----------------------|
A|-------------------------------|-----------------------|
E|-------------------------------|-----------------------|





              X   XXXX
  B7
e|5------ 5------ -------|
B|4-------4--------------|
G|2-------2--------------|
D|4-------4--------------|
A|2-------2--------------|
E|-----------------------|                                  
                  Hey




  E                               B                       B5  B6
e|0------ 0------ 0------ 0------|------- ------- ------- -------|
B|0-------0-------0-------0------|-------------------------------|
G|1-------1-------1-------1------|4-------4-------4-------4------|
D|2-------2-------2-------2------|4-------4-------4-------4---6--|
A|-------------------------------|6-------6-------2-------2------|
E|0-------0---0---0-------0------|7---7---7-------2---2----------|
  Jude              don't let me down.                    You have 
e|0---0-- ------- 0---0-- 0---0--|2------ 2-----2 ------- 2-----2|
B|0---0-----------0---0---0---0--|0-------0-----0---------0-----0|
G|1---1-------1---1---1---1---1--|2---2---2-----2-2---2---2-----2|
D|2---2-------2---2---2---2---2--|1---1---1-----1-1---1---1-----1|
A|2---2-------2---2---2---2---2--|2---2---2----------------------|
E|0---0-------0---0---0---0---0--|----------------2---2----------|
 





  B7      B11                     E
e|------- 0------ 0------ 0------|0------ 0------ 0------ 0------|
B|0-------0-------0-------0------|0-------0-------0-------0------|
G|2-------2-------2-------2------|1-------1-------1-------1------|
D|1-------1-------1-------1------|2-------2-------2-------2------|
A|2-------2-------2-------2------|-------------------------------|
E|-------------------------------|0-------0-------0---0---0---0--|
  found   her,        now go and  get her.                    Re..
                                                             (Re..
                                          (Anyhow     remember
e|------- 2---2-- ------- 2-----2|------- 0------ ------- 0------|
B|--------0---0-----------0-----0|--------0---------------0------|
G|2---2---2---2---2---2---2-----2|--------1---------------1------|
D|1---1---1---1---1---1---1-----1|2---2---2-------2---2---2------|
A|2---2--------------------------|2---2-----------2---2----------|
E|----------------2---2----------|0---0-----------0---0----------|





[ Tab from: http://www.guitartabs.cc/tabs/b/beatles/hey_jude_tab_ver_3.html ]
  A                               E
e|0------ 0------ 0------ 0------|0------ 0------ 0------ 0------|
B|2-------2-------2-------2------|0-------0-------0-------0------|
G|2-------2-------2-------2------|1-------1-------1-------1------|
D|2-------2-------2-------2------|2-------2-------2-------2------|
A|0-------0----------------------|-------------------------------|
E|----------------0-------0------|0---0---0-------0-------0------|
  member     to let her into your heart,         then you can start
  member     to let her into your heart,         then you can start
          Hey jude)
e|------- 0------ ------- 0------|------- 0---0-- ----0-- 0------|
B|--------2---------------2------|--------0---0-------0---0------|
G|2---2---2-------2---2---2---2--|--------1---1-------1---1------|
D|2---2---2-------2---2---2---2--|2---2---2---2---2---2---2------|
A|0---0---0-------0---0---0---0--|2---2-----------2--------------|
E|----------------0---0----------|0---0-----------0--------------|






  B                               E                           Emaj7
e|------- ------- ------- -------|0------ 0------ ------- 0------|
B|-------------------------------|0-------0---------------0---4--|
G|4-------4-------4-------4------|1-------1---------------1---1--|
D|4-------4-------4-------4------|2-------2---------------2---2--|
A|6-------6-------6-------6------|-------------------------------|
E|7---7---7-------7-------7------|0-------0---------------0---0--|
              to  make it     better
              to  make it     better)
e|2---2-- 2------ ------- 2------|0------ 0------ ------- 0------|
B|0---0---0-------0---0---0------|0-------0---------------0------|
G|2---2---2-------2---2---2------|1-------1-----------1---1---1--|
D|1---1---1-------1---1---1------|2-------2-----------2---2---2--|
A|2---2---2----------------------|2-------2-----------2-------2--|
E|----------------2---2----------|0-------0-----------0-------0--|






  E7                              A                   Amaj7
e|0------ 0------ 0------ 0------|0---0-- ----0-- ------- -------|
B|3-------3-------3-------3------|2---2-------2-------5---5------|
G|1-------1-------1-------1------|2---2-------2-------2---2------|
D|2-------2-------2-------2------|2---2-------2-------2---2------|
A|-------------------------------|0---0-------0------------------|
E|0-------0-------0-------0------|--------------------4---4---4--|
      So  let it out and  let it in,      hey Jude,       begin, 
e|0------ 0---0-- 0---0-- 0------|0---0-- 0------ ------- -------|
B|3-------3---3---3---3---3------|2---2---2-------4---4---4------|
G|1-------1---1---1---1---1------|2---2---2-------6---6---6------|
D|2-------2---2---2---2---2------|2---2---2-------6---6---6------|
A|2-------2---2---2---2---2------|0---0---0-------4---4---4------|
E|0-------0---0---0---0---0------|----------------4---4---4------|






  F#m                     F#m7    B
e|------- ------- ------- -------|------- ------- ------- -------|
B|2---2-------2-----------2------|-------------------------------|
G|2---2-------2-----------2------|4---4---4---4---4---4---4---4--|
D|4---4-------4-----------4------|4---4---4---4---4---4---4---4--|
A|-------------------------------|6---6---6---6---6---6---2---2--|
E|2---2-------2-----------0------|7---7---7---7---7---7---2---2--|
          You're waiting for someone          to          perform 
e|2---2-- 2------ 2---2-- 2------|2---2-- 2------ ------- 2------|  
B|5---5---5-------5---5---5------|0---0---0---------------0------|
G|2---2---2-------2---2---2------|2---2---2-----2-2---2---2------|
D|4---4---4-------4---4---4------|1---1---1-----1-1---1---1------|
A|4---4---4-------4---4---4------|2---2---2-----2----------------|
E|2---2---2-------0---0---0------|----------------2---2----------|






  E                           E6  E7
e|0------ ----0-- 0---0-- 0---0--|0---0-- 0------ 0------ 0------|
B|0-----------0---0---0---0---4--|3---3---3-------3-------3------|
G|1-----------1---1---1---1---1--|1---1---1-------1-------1------|
D|2-----------2---2---2---2---2--|2---2---2-------2-------2------|
A|-------------------------------|-------------------------------|
E|0-----------0---0---0---0---0--|0---0---0-------0-------0------|
      with.                        And don't you know that it's just  you,
e|------- 0------ 0------ 0------|0------ 0------ ------- 0------|
B|--------0-------0-------0------|3-------3---------------3------|
G|--------1-------1-------1------|1-------1-------1---1---1------|
D|2---2---2-------2-------2------|2-------2-------2---2---2------|
A|2---2--------------------------|2-------2-------2---2---2------|
E|0---0--------------------------|0-------0-------0---0---0------|   

e|------- ------- ------- -------|------- ------- ------- -------|
B|------------------------0---2--|3------------------------------|
G|--------------------1---1---2--|4------------------------------|
D|--------------------2----------|-------------------------------|
A|-------------------------------|-------------------------------|
E|-------------------------------|-------------------------------|


 



      A           Amaj7           F#m             F#m7
e|----0-- ----0-- ------- -------|------- ------- ------- -------|
B|----2-------2---5---5---5---5--|2---2---2---2---2-------2------|
G|----2-------2---2---2---2---2--|2---2---2---2---2-------2------|
D|----2-------2---2---2---2---2--|4---4---4---4---4-------4------|
A|----0-------0------------------|-------------------------------|
E|----------------4---4---4---4--|2---2---2---2---0-------0------|
          hey Jude,       you'll do,      The movement    you need 
e|------- 0------ ------- -------|------- 2------ ------- 2------|
B|--------2---------------5------|--------5---------------5------|
G|2---2---2---------------6------|--------2---------------2------|
D|2---2---2-------6---6---6------|4---4---4-------4---4---4------|
A|0---0---0-------4---4---4------|4---4---4-------4---4---4------|
E|----------------4---4---4------|2---2---2-------0---0---0------|






  B                               E                           E6
e|------- ------- ------- -------|0------ 0---0-- 0---0-- 0---0--|
B|-------------------------------|0-------0---0---0---0---0---2--|
G|4-------4-------4---4-------4--|1-------1---1---1---1---1---1--|
D|4-------4-------4---4-------4--|2-------2---2---2---2---2---2--|
A|6-------6-------6---6-------2--|-------------------------------|
E|7-------7-------7---7-------2--|0-------0---0---0---0---0---0--|
          is on           your shoulder.
e|------- 2------ ------- 2---2--|0------ 0------ ------- 0---0--|
B|--------0---------------0---0--|0-------0---------------0---0--|
G|2---2---2-------2---2---2---2--|1-------1---------------1---1--|
D|1---1---1-------1---1---1---1--|2---2---2-------2---2---2---2--|
A|2---2--------------------------|2---2---2-------2---2----------|
E|----------------2---2----------|0---0---0-------0---0----------|

e|------- ------- ------- -------|------- ------- ------- -------|
B|-------------------------------|------------------------0---2--|
G|-------------------------------|--------------------1---1---2--|
D|-------------------------------|--------------------2----------|
A|-------------------------------|-------------------------------|
E|-------------------------------|-------------------------------|


 




  E7              B7  B11 B7                          B6
e|0------ 0------ ----0-- 2------|2------ ------- 2---4--|
B|3-------3-------4---0---0------|0---------------4---4--|
G|1-------1-------2---2---2------|2---------------4---4--|
D|2-------2-------1---1---1------|1---------------4---4--|
A|----------------2---2---2------|2-----------2---2---2--|
E|0-------0----------------------|-----------------------|
  Na      na      na  na  na      na
  Na      na      na  na  na      na)
e|0------ 0------ ------- -------|------- ------- -------|
B|0-------0-------0--------------|--------0-------0------|
G|1-------1-------2--------------|--------2-------2------|
D|2-------2-------1--------------|--------1-------1------|
A|2-------2-------2--------------|--------2-------2------|
E|0-------0----------------------|-----------------------|

e|------- ------- ------- -------|------- ------- -------|
B|3-------3-------4---5---7------|-----------------------|
G|4-------4-------4---6---8------|-----------------------|
D|-------------------------------|-----------------------|
A|-------------------------------|-----------------------|
E|-------------------------------|-----------------------|






              X   X  xX
  B7
e|5------ 5------ -------|
B|4-------4--------------|
G|2-------2--------------|
D|4-------4--------------|
A|2-------2--------------|
E|-----------------------|                      
                  Hey                     





  E                               B                       B5  B6
e|0------ 0------ 0------ 0------|------- ------- ------- -------|
B|0-------0-------0-------0------|-------------------------------|
G|1-------1-------1-------1------|4-------4-------4-------4------|
D|2-------2-------2-------2------|4-------4-------4-------4---6--|
A|-------------------------------|6-------6-------6-------2------|
E|0-------0-------0-------0------|7-------7-------7--------------|
 Jude,              don't make it bad.                     Take a
                   (don't make it bad.                     Take a
e|--0-0-- 0------ 0------ 0------|----2-- ------- ------- -------|
B|0-0-0---0-------0---0---0------|0---0-------------------0------|
G|1-1-1---1-------1---1---1------|2---2---2-------2---2---2------|
D|2-2-2---2---2---2---2---2------|1---1---1-------1---1---1------|
A|2-2-2---2---2---2---2---2------|2---2---2----------------------|
E|0-0-0---0---0---0---0---0------|----------------2---2----------|






  B7      B11                     E
e|------- 0------ 0------ 0------|0------ 0------ 0------ 0------|
B|0-------0-------0-------0------|0-------0-------0-------0------|
G|2-------2-------2-------2------|1-------1-------1-------1------|
D|1-------1-------1-------1------|2-------2-------2-------2------|
A|2-------2-------2-------2------|-------------------------------|
E|-------------------------------|0-------0-------0-------0------|
  sad     song        and make it better.                    Re.. 
  sad     song        and make it better.                    Re..
e|------- 2-----2 ------- 2------|------- 0------ ------- 0------|
B|--------0-----0---------0------|--------0---------------0------|
G|2---2---2-----2-2---2---2------|--------1---------------1------|
D|1---1---1-----1-1---1---1------|2-------2-------2---2---2------|
A|2---2---2-----2----------------|2-------2-------2---2---2------|
E|----------------2---2----------|0-------0-------0---0---0------|

 




  A                               E
e|0------ 0------ 0------ 0------|0------ 0------ 0------ 0------|
B|2-------2-------2-------2------|0-------0-------0-------0------|
G|2-------2-------2-------2------|1-------1-------1-------1------|
D|2-------2-------2-------2------|2-------2-------2-------2------|
A|0-------0-------0-------0------|-------------------------------|
E|-------------------------------|0-------0-------0-------0------|
  member     to let her under your skin,          Then you begin 
  member     to let her under your skin,          Then you begin
e|------- 0------ ------- 0------|------- 0---0-- ------- 0------|
B|--------2---------------2------|--------0---0-----------0------|
G|2---2---2-------2---2---2------|--------1---1-----------1------|
D|2---2---2-------2---2---2------|2---2---2---2---2---2---2------|
A|0---0---0-------0---0---0------|2---2---2-------2---2---2------|
E|-------------------------------|0---0---0-------0---0---0------|

 




  B                               E
e|------- ------- ------- -------|0------ 0------ 0------ 0------|
B|-------------------------------|0-------0-------0-------0------|
G|4-------4-------4-------4------|1-------1-------1-------1------|
D|4-------4-------4-------4------|2-------2-------2-------2------|
A|6-------6-------6-------6------|-------------------------------|
E|7-------7-------7-------7------|0-------0-------0-------0------|
             to   make it    better       better  better  better
             to   make it    better       better  better  better
e|2---2-- 2------ ------- 2------|------- 0-----0 ------- 0------|
B|0---0---0---------------0------|--------0-----0---------0------|
G|2---2---2-------2---2---2---2--|--------1-----1---------1------|
D|1---1---1-------1---1---1---1--|2---2---2-----2-2-------2---2--|
A|2---2---2----------------------|2---2-----------2-----------2--|
E|----------------2---2-------2--|0---0-----------0-----------0--|





                          x
 
e|0------ 0------ 0------ -------|
B|0-------0-------0--------------|
G|1-------1-------1--------------|
D|2-------2-------2--------------|
A|-------------------------------|
E|0-------0-------0--------------|
  Better  better, Oh           Oh
  Better  better, Oh)
e|0------ 0------ 0------ -------|
B|0-------0-------0--------------|
G|1-------1-------1--------------|
D|2-------2-------2--------------|
A|2-------2-------2--------------|
E|0-------0-------0--------------|




    Coda

 
  E                               D
e|0------ 0------ 0------ 0------|0---0-- 0------ 0---0-- 0---0--|
B|0-------0-------0-------0------|3---3---3-------3---3---3---3--|
G|1-------1-------1-------1------|2---2---2-------2---2---2---2--|
D|2-------2-------2-------2------|0---0---0-------0---0---0---0--|
A|-------------------------------|-------------------------------|
E|0-------0-------0-------0------|-------------------------------|
  Yeah      yeah yeah yeah yeah yeah 
 (Na              na      na      nanana  na
e|0------ 0---0-- 0---0-- 0---0--|2---2-- 2---2-- ------- 2---2--|
B|0-------0---0---0---0---0---0--|3---3---3---3-----------3---3--|
G|1-------1---1---1---1---1---1--|2---2---2---2-----------2---2--|
D|2-------2---2---2---2---2---2--|0---0---0---0-----------0---0--|
A|2-------2---2---2---2---2---2--|-------------------------------|
E|0-------0---0---0---0---0---0--|-------------------------------|






  A                               E
e|0---0-- 0---0-- 0---0-- 0---0--|0------ 0---0-- ------- 0---0--|
B|2---2---2---2---2---2---2---2--|0-------0---0-----------0---0--|
G|2---2---2---2---2---2---2---2--|1-------1---1-----------1---1--|
D|2---2---2---2---2---2---2---2--|2-------2---2-----------2---2--|
A|0---0---0---0---0---0---0---0--|-------------------------------|
E|-------------------------------|0-------0---0-----------0---0--|
  
  Nanana  na              Hey Jude)
e|0---0-- 0---0-- ----0-- 0---0-0|0---0-- 0-----0 0---0-- 0---0-0|
B|2---2---2---2-------2---2---2-2|0---0---0-----0-0---0---0---0-0|
G|2---2---2---2-------2---2---2-2|1---1---1-----1-1---1---1---1-1|
D|2---2---2---2-------2---2---2-2|2---2---2-----2-2---2---2---2-2|
A|0---0---0---0-------0---0---0-0|2---2---2-----2-2---2---2---2-2|
E|-------------------------------|-------------------------------|






                                  D
e|0---0-- 0---0-- 0------ 0------|0---0-- 0------ 0---0-- 0---0--|
B|0---0---0---0---0-------0------|3---3---3-------3---3---3---3--|
G|1---1---1---1---1-------1------|2---2---2-------2---2---2---2--|
D|2---2---2---2---2-------2------|0---0---0-------0---0---0---0--|
A|-------------------------------|-------------------------------|
E|0---0---0---0---0-------0------|-------------------------------|

 (Na              na      na      nanana  na
e|0---0-- 0---0-0 0---0-- 0---0-0|2---2-- 2---2-2 2------ 2---2-2|
B|0---0---0---0-0-0---0---0---0-0|3---3---3---3-3-3-------3---3-3|
G|1---1---1---1-1-1---1---1---1-1|2---2---2---2-2-2---2---2---2-2|
D|2---2---2---2-2-2---2---2---2-2|0---0---0---0-0-0---0---0---0-0|
A|2---2---2---2-2-2---2---2---2-2|-------------------------------|
E|0---0---0---0-0-0---0---0---0-0|-------------------------------|






  A                               E
e|0---0-- 0---0-- 0---0-- 0---0--|0---0-- 0---0-- 0---0-- 0---0--|
B|2---2---2---2---2---2---2---2--|0---0---0---0---0---0---0---0--|
G|2---2---2---2---2---2---2---2--|1---1---1---1---1---1---1---1--|
D|2---2---2---2---2---2---2---2--|2---2---2---2---2---2---2---2--|
A|0---0---0---0---0---0---0---0--|-------------------------------|
E|-------------------------------|0---0---0---0---0---0---0---0--|
  
  Nanana  na              Hey Jude) 
e|0---0-- 0---0-- 0---0-- 0---0-0|------- 0-----0 --0---0 --0-0-0|
B|2---2---2---2---2---2---2---2-2|--------0-----0---0---0---0-0-0|
G|2---2---2---2---2---2---2---2-2|--------1-----1---1---1---1-1-1|
D|2---2---2---2---2---2---2---2-2|2---2---2-----2---2---2-2-2-2-2|
A|0---0---0---0---0---0---0---0-0|2---2---2-----2---2---2-2-2-2-2|
E|-------------------------------|0---0---0-----0---0---0-0-0-0-0| .........
                




 


        B  Bend
        R  Release
        /  Slide up
        \  Slide down
        H  Hammer-on
        P  Pull-off
        ~  Vibrato
        +  Harmonic
        x  Mute note
        .  Play note like a dot in standard notation
        ^  Ties two notes together
        (. Pause
Comments