Beatles - Hey Jude Chords & Tabs

 

Hey Jude Chords & Tabs

Beatles Chords & Tabs

Version: 2 Type: Tab 0 ratings
1 star 2 stars 3 stars 4 stars 5 stars
comments

Hey Jude Tab

This is as close as I could get to the vocals... I enjoy making my guitar sing... I hope 
do too ;)

e|-----------------------------------------------------------------------|
B|-3-0---0-3-5-----------------------------------------------------------|
G|------------2---2-4-5-12--12-11-7-9-7-5-4---7-9-9--9-14-12-11-12-9-7---|
D|-----------------------------------------------------------------------|
A|-----------------------------------------------------------------------|
E|-----------------------------------------------------------------------|

e|-----------------------------------------------------------------------|
B|-----------------------------------------------------------------------|
G|-0-2-4-9-7--7-5-4-0-0--------------------------------------------------|
D|-----------------------------------------------------------------------|
A|-----------------------------------------------------------------------|
E|-----------------------------------------------------------------------|

e|-----------------------------------------------------------------------|
B|-3-0---0-3-5-----------------------------------------------------------|
G|------------2---2-4-5-12--12-11-7-9-7-5-4---7-9-9--9-14-12-11-12-9-7---|
D|-----------------------------------------------------------------------|
A|-----------------------------------------------------------------------|
E|-----------------------------------------------------------------------|

e|-----------------------------------------------------------------------|
B|-----------------------------------------------------------------------|
G|-0-2-4-9-7--7-5-4-0-0--------------------------------------------------|
D|-----------------------------------------------------------------------|
A|-----------------------------------------------------------------------|
E|-----------------------------------------------------------------------|


e|-----------------------------------------------------------------|
B|-----------------------------------------------------------------|
G|-5-10-8-7-5-5-3-7--10-7-10-3---10-7-5-3-5--7-5-3-2---------------|
D|---------------------------------------------------3-------------|  [X2]
A|-----------------------------------------------------------------|
E|-----------------------------------------------------------------|

e|-----------------------------------------------------------------------|
B|-----------------------------------------------------------------------|
G|-----------------------------------------------------------------------|
D|-3-7-10-12-12--14-15-17-17---------------------------------------------|
A|-----------------------------------------------------------------------|
E|-----------------------------------------------------------------------|
[ Tab from: http://www.guitartabs.cc/tabs/b/beatles/hey_jude_tab_ver_2.html ]
e|-----------------------------------------------------------------------|
B|-3-0---0-3-5-----------------------------------------------------------|
G|------------2---2-4-5-12--12-11-7-9-7-5-4---7-9-9--9-14-12-11-12-9-7---|
D|-----------------------------------------------------------------------|
A|-----------------------------------------------------------------------|
E|-----------------------------------------------------------------------|

e|-----------------------------------------------------------------------|
B|-----------------------------------------------------------------------|
G|-0-2-4-9-7--7-5-4-0-0--------------------------------------------------|
D|-----------------------------------------------------------------------|
A|-----------------------------------------------------------------------|
E|-----------------------------------------------------------------------|

e|-----------------------------------------------------------------|
B|-----------------------------------------------------------------|
G|-5-10-8-7-5-5-3-7--10-7-10-3---10-7-5-3-5--7-5-3-2---------------|
D|---------------------------------------------------3-------------|  [X2]
A|-----------------------------------------------------------------|
E|-----------------------------------------------------------------|

e|-----------------------------------------------------------------------|
B|-----------------------------------------------------------------------|
G|-----------------------------------------------------------------------|
D|-3-7-10-12-12--14-15-17-17---------------------------------------------|
A|-----------------------------------------------------------------------|
E|-----------------------------------------------------------------------|

e|-----------------------------------------------------------------------|
B|-3-0---0-3-5-----------------------------------------------------------|
G|------------2---2-4-5-12--12-11-7-9-7-5-4---7-9-9--9-14-12-11-12-9-7---|
D|-----------------------------------------------------------------------|
A|-----------------------------------------------------------------------|
E|-----------------------------------------------------------------------|

e|-----------------------------------------------------------------------|
B|-----------------------------------------------------------------------|
G|-0-2-4-9-7--7-5-4-0-0--------------------------------------------------|
D|-----------------------------------------------------------------------|
A|-----------------------------------------------------------------------|
E|-----------------------------------------------------------------------|


e|------------------------------------------------------------------|
B|------------------------------------------------------------------|
G|----------12-10-12-10--12-10-12-10---7-5--------------------------|
D|-3--7--10---------------------------------------------------------| [X18]
A|------------------------------------------------------------------|
E|------------------------------------------------------------------|
Comments