Beatles - Hey Jude Chords & Tabs

 

Hey Jude Chords & Tabs

Beatles Chords & Tabs

Version: 1 Type: Tab 0 ratings
1 star 2 stars 3 stars 4 stars 5 stars
comments

Hey Jude Tab

-------------------------------------------------------------------------------
			     HEY JUDE-The Beatles
-------------------------------------------------------------------------------

Tabbed by:Rob
Email:Robertgenius@hotmail.com

This is more of an accompaniment.

Tuning:Standard

e|-------------------0-------2------------------3----------3--2--------------|
B|-3--0----------0-3-------3---3------0---1----------------------3-----------|
G|--------0--------------3----------2--------0-------------------------------|
D|------0---0------------0--------0----------------2-------------------------|
A|----------------------------------------3-------------3--------------------|
E|----3--------3-------------------------------------------------------------|

e|-0---------------------------0-0----0---5-3--2h3-0-----------------------0-|
B|----3--1--0----------0---3---------------------------3---------------0-----|
G|---------------------0------------0-----------------------0----0--2--------|
D|-------------0-----0------------------------------------0---0--------------|
A|-----------------------------3----------3----------------------2-----------|
E|-3--------------3------------------------------------3---------------------|
[ Tab from: http://www.guitartabs.cc/tabs/b/beatles/hey_jude_tab.html ]
e|-----2---------------------3------------3-0--0----------0---3-0------3-----|
B|-3------3--1-0-------------0-----------------0--3-3-2-------------------2--|
G|---2-----------2---------0-----------0-------0------------0--------0-------|
D|-0---------0------4-----------0--------------3-----------------------------|
A|--------------------------------------------------------3--------2---------|
E|----------------------3------------3---------------------------------------|

e|------3-0-----------------0----------3----------3----------0---------------|
B|-2------------3-2-3----------3-------1----0-----0--------3-----------------|
G|----2------------------2-----------2---2----2-0-------0--------------------|
D|---------------------0----------0------------------------------------------|
A|-0---------3---------------------------------------------------------------|
E|------------------------------------------3---------3----------------------|

e|-1-0-1--2--3-5---5-7--8--8-------------------------------------------------|
B|-0---0--3--5-7---7-8-10-10-------------------------------------------------|
G|-0---0--2------------------------------------------------------------------|
D|--------0--------0---------------------------------------------------------|
A|---------------------------------------------------------------------------|
E|-3---3---------------------------------------------------------------------|

Well, that's it... I hope it helps. E-mail me if you want.
Comments