Beatles - Here There And Everywhere Chords & Tabs

 

Here There And Everywhere Chords & Tabs

Beatles Chords & Tabs

Version: 2 Type: Tab 1 rating
1 star 2 stars 3 stars 4 stars 5 stars
comments

Here There And Everywhere Tab

   
I'd toyed with different versions and little bits of this piece for
years without producing anything coherent. Then I googled it, 
looked at everybody else's work and finally came up with this 
direct-approach arrangement. 

I've never shared anything before, but I think this is one piece I
would have been genuinely happy to find, so Im posting it. It's pretty 
basic fingerstyle stuff, (until you get to some finger excercises
at the bridge.) 

Thanks to Courtney Babbidge (cbm7b5@yahoo.com) I used Courtney's
TAB from OLGA to cut & paste up this TAB. I can't comment on 
how that arrangement compares to this.

Special thanks to Jean-Pierre Trolet, It was his MP3 of this
tune that finally set me on the correct path. 
http://jptrol.free.fr/mus/htev/index.htm


Here There and Everywhere
Music/lyrics: Lennon/McCartney

Here's a nice, slow MP3 version 
http://home.comcast.net/~t.magnarelli/mp3/HereThereAndeverywhere.mp3

4/4 time


Intro (rubato)

Sustain everything everywhere ;^)                    >> = Slide

|   |   |   |    |   |   HOLD|    |   |   |   |   |   |   HOLD|
| | | | | | | |  | | | | | | | |  | | | | | | | | | | | | | | | |
3---------------|----------------|--------1------|----------------|
0-----------0---|3---3------3----|------3---4-3--|1->>3------3----|
0-------0-------|4---2-----2-----|----3----------|--0-------5-----|
0---0-----------|4---4----3------|--3------------|---------4------|
----------------|2---2---2-------|1--------------|0-------5-------|
3---------------|----------------|---------------|----------------|


Verse (a tempo)
                       4th finger
  |   |   |   |    |   |   |   |    |   |   |   |   |   |   |   |
  | | | | | | | |  | | | | | | | |  | | | | | | | | | | | | | | | |
||----------------|----5-3-----0---|---------------|------0---------|
||------0-1-------|--3-------1---3-|------0-1------|0-1-3---------0-|
|*----0-------0---|4---------------|----0-------0--|----------0-2---|
|*--0-------2-----|4---------------|--0-------2----|----------------|
||--------0-------|2-------3-------|--------0------|----2---3-------|
||3---------------|----------------|3--------------|3---------------|

                                                   ________________
                                                  |1.              |
|   |   |   |    |   |   |   |    |   |   |   |    |   |   |   |
| | | | | | | |  | | | | | | | |  | | | | | | | |  | | | | | | | |
----------------|----------------|------2---0-----|3---3---2-------||
--0-0-0-----0-R-|0-1-0-0---------|----0-1-------1-|1---1---1---1---||
------------2-E-|------------2-0-|--2---------2---|--2---2---2---0-*|
----------1---S-|----------1---2-|----------------|0-------0-------*|
--------2-----T-|--------2-------|--------0-------|----------------||
2---------------|2---------------|0---------------|----------------||


Here's that confounded bridge. It's only really four measures, but
it's the collest (toughest techniaclly) part of the piece. 

I've put technique tips are above the TAB: 
The basic idea is that If you don't want so squeek, you have to set 
up your bar chords (and everything else) early. So to set up for the
bridgel, play the last 1/8 note (C) in the measure barred at fret 1 
for easy transition to the standard Bb bar chord that makes up beats
one and two of the next measure (the first measure of the bridge.)

_______________    
|2.           BAR-1   
|   |   |   | HERE - and hold it for the next measure
| | | | | | | |  
3---3---2-------|
1---1---1-----1-|
--2---2---2-3---|
0-------0-------|
----------------|
----------------|

Measure 1
The first two beats are a Bb BAR-1 chord you set up last measure.

Play the (G) in the third beat of the first measure barred at
fret 3 and the rest of that measure is a standard G BAR-3 chord. 
[ Tab from: http://www.guitartabs.cc/tabs/b/beatles/here_there_and_everywhere_tab_ver_2.html ]
Measure 2
And the first two beats of the second measure are a Bm chord using 
the same BAR-3 from last measure.
(play the Bb on the upbeat of two on the 3rd string using the bar as
well - It's there, so use it!)

Use the fingerings shown above the tab in beats 3 and 4 of the 
second measure. (pushing your index finger back to the second fret(A)
takes practice, but you'll need this in measure 4 too, so go slow.)

Measure 3
And BAR-3 the third fret for the entire third measure 
(you're playing two melody lines here! The desending "nev-er care"
vocal on strings 2,3,4 and the ascending single-note guitar fill
played on the second string)

Measure 4
keep hold of the BAR-3 for the Bm7 chord in the first two beats of the
fourth measure below. Again, play the Bb on the upbeat of two using 
the bar and use the fingerings shown above the TAB for beats three 
and four. This time (as in measure 2) you have to push you index 
finger back to the second fret(A), but then you "walk"  forward 
to place your second finger on the third fret(Bb) and while you pluck
the note, push your index finger back again to the first fret(C). 
(I find it helps to hold down this last note(C) with my index finger
while I set up the first fingering of the next measure)

Bridge

  BAR-1   BAR-3            3        BAR-3                    3
  HERE--->HERE-----------> 4 1 2 4  HERE-------------------> 4 1 2 1
  | | | | | | |  | | | | | | | | | || | | | | | | |  | | | | | | | |
||--1-------------|----------------|----------------|----4-----------|
||3---3-----------|--3-4-----------|3-3-4-5-6-5-4-3-|4-6-----------1-|
|*3-----------5-3-|5-----3---2-3-5-|--3-----3-3-----|3-----3---2-3---|
|*----------3-----|5-------4-------|----5---5-5-5---|5-------4-------|
||1---------------|3-------5-------|----------------|3-------5-------|
||--------3-------|----------------|----3---3---3---|----------------|


   
 |   |   |   |    |   |   |   |    |   |   |   |    |   |   |   |   
 | | | | | | | |  | | | | | | | |  | | | | | | | |  | | | | | | | |
|----------------|----5-3-----0---|----------------|------0---------|
|3---0-------1---|--3-------1---3-|----3-------1---|0-1-3---------0-|
|0-----0-----0---|5---------------|------0-----0---|----------0-2---|
|0---------2-----|5---------------|--0-------2-----|----------------|
|--------0-------|3---------------|--------0-------|----2---3-------|
|3---------------|--------3-------|3---------------|3---------------|

                                                   ________________
                                                  |1+2 -to the bridge
|   |   |   |    |   |   |   |    |   |   |   |    |   |   |   | Bar1
| | | | | | | |  | | | | | | | |  | | | | | | | |  | | | | | | | Here
----------------|----------------|------2---0-----|3---3---2-------||
--0-0-0-----0-R-|0-1-0-0---------|----0-1---1---1-|1---1---1-----1-||
------------2-E-|------------2-0-|--2-----2---2---|--2---2---2-3---*|
----------1---S-|----------1---2-|----------------|0-------0-------*|
--------2-----T-|--------2-------|------0---------|----------------||
2---------------|2---------------|0---------------|----------------||


 
 _________________
|3.           
|   |   |   |    |   |   |   |    |   |   |   |    |   |   |   | 
| | | | | | | |  | | | | | | | |  | | | | | | | |  | | | | | | | |
3---3---2-------|----------------|----------------|----------------|
1---1---1-------|----0---------0-|3---------------|----0---------0-|
--2---2---2-1-1-|0-----0-----0---|----4-0-----0---|0-----0-----0---|
0-------0-------|--0-------2-----|--4------02---2-|--0-------2-----|
----------------|--------0-------|2-------3-------|--------0-------|
----------------|3---------------|----------------|3---------------|


   Rit. 
        Strum    Strum                                      
|   |   & Hold   & hold
| | | 
----5>3-----3------3--||
3----------1------0---||
--2-------0------0----||
---------2------0-----||
2-------3-------------||
--------------3-------||
Comments