Beatles - Here There And Everywhere Chords & Tabs

 

Here There And Everywhere Chords & Tabs

Beatles Chords & Tabs

Version: 4 Type: Bass Tab 0 ratings
1 star 2 stars 3 stars 4 stars 5 stars
comments

Here There And Everywhere Bass Tab

HERE, THERE AND EVERYWHERE

By Paul McCartney

VERSE

G|---------------------------------|---------------------------------|
D|-----------------7---------------|-9---------------10--------------|
A|-10------------------------------|---------------------------------|
E|---------------------------------|---------------------------------|

G|---------------------------------|---------------------------------|
D|-----------------7---------------|-9---------------10--------------|
A|-10------------------------------|---------------------------------|
E|---------------------------------|---------------------------------|

G|---------------------------------|---------------------------------|
D|-----------------9---------------|-----------------9---------------|
A|-9-------------------------------|-9-------------------------------|
E|---------------------------------|---------------------------------|

G|---------------------------------|-----------------7---------------|
D|-----------------7---------------|-7-------------------------------|
A|-7-------------------------------|---------------------------------|
E|---------------------------------|---------------------------------|

VERSE

G|---------------------------------|---------------------------------|
D|-----------------7---------------|-9-----------9---10--------------|
A|-10------------------------------|---------------------------------|
E|---------------------------------|---------------------------------|

G|---------------------------------|---------------------------------|
D|-----------------7---------------|-9-----------9---10--------------|
A|-10------------------------------|---------------------------------|
E|---------------------------------|---------------------------------|

G|---------------------------------|---------------------------------|
D|-----------------9---------------|-----------------9---------------|
A|-9-------------------------------|-9-------------------------------|
E|---------------------------------|---------------------------------|

G|-------------9-------------------|-------------9---7---------------|
D|-----------------7-----------7---|-7-------7-----------------------|
A|-7-------------------------------|-------------------------8-------|
E|---------------------------------|---------------------------------|

BRIDGE

G|---------------------------------|-----------------7-------7-------|
D|---------------------------------|-10----------10------------------|
A|-----------------10--------------|---------------------------------|
E|-6-------------------------------|---------------------------------|

G|---------------------------------|-----------------7-------7-------|
D|---------------------------------|-10----------10------------------|
A|-10----------10--10--10--10--10--|---------------------------------|
E|---------------------------------|---------------------------------|

VERSE
[ Tab from: http://www.guitartabs.cc/tabs/b/beatles/here_there_and_everywhere_btab_ver_4.html ]
G|---------------------------------|---------------------------------|
D|-----------------7-----------7---|-9-----------9---10--------------|
A|-10----------10------------------|---------------------------------|
E|---------------------------------|---------------------------------|
                                                             .   .
G|---------------------------------|---------------------9-----------|
D|-----------------7-----------7---|-9-----------9---10----107-------|
A|-10----------10------------------|-----------------------------10--|
E|---------------------------------|---------------------------------|

G|---------------------------------|---------------------------------|
D|-----------------9---------------|-----------------9---------------|
A|-9-----------9-------------------|-9-----------9-------------------|
E|---------------------------------|---------------------------------|

G|---------------------------------|-------------5---7---------------|
D|-----------------7---------------|-7-------7-9---------------------|
A|-7-----------7-------------------|-------------------------8-------|
E|---------------------------------|---------------------------------|

BRIDGE

G|---------------------------------|-----------------7---------------|
D|-8-------------------------------|-10----------10------------------|
A|-----------------10--------------|---------------------------------|
E|---------------------------------|---------------------------------|

G|---------------------------------|-----------------7---------------|
D|---------------------------------|-10----------10------------------|
A|-10----------10--10----------10--|---------------------------------|
E|---------------------------------|---------------------------------|

VERSE

G|---------------------------------|---------------------------------|
D|-----------------7-------7-------|-9-------9-------10------10------|
A|-10------------------------------|---------------------------------|
E|---------------------------------|---------------------------------|

G|---------------------------------|---------------------------------|
D|-----------------7-----------7---|-9-----------9---10--------------|
A|-10------------------------------|---------------------------------|
E|---------------------------------|---------------------------------|

G|---------------------------------|---------------------------------|
D|-----------------9---------------|-----------------9---------------|
A|-9-----------9-------------------|-9-----------9-------------------|
E|---------------------------------|---------------------------------|
                                                     .       .
G|---------------------------------|-----------------7-------7-------|
D|-----------------7-----------7---|-7-----9-10--7-------------------|
A|-7-----------7-------------------|---------------------------------|
E|---------------------------------|---------------------------------|

G|---------------------------------|---------------------------------|
D|-----------------7-----------7---|-9-----------9---10----------10--|
A|-10----------10------------------|---------------------------------|
E|---------------------------------|---------------------------------|

G|---------------------------------|---------------------------------|
D|-----------------7---------------|-9-----------9---10----------10--\
A|-10------------------------------|---------------------------------|
E|---------------------------------|---------------------------------|

G|---------------------------------|
D|-5-------------------------------|
A|---------------------------------|
E|---------------------------------|
Comments