Beatles - Here There And Everywhere Chords & Tabs

 

Here There And Everywhere Chords & Tabs

Beatles Chords & Tabs

Version: 1 Type: Bass Tab 0 ratings
1 star 2 stars 3 stars 4 stars 5 stars
comments

Here There And Everywhere Bass Tab

Title        : Here, There And Everywhere
Artist/Group : The Beatles     Album : Revolver
Info         : 4 String Standard Bass
Date - Time  : 8/1/2002 - 10:47:47 PM
Created by   : Ken Robertson

G-------------|-------------------------------------|
D-------------|---------------------4---4---2-------|
A-----2-1---5-|-----2-3-------2-3-----2---2-------5-|
E---3-----5---|-3-5-------3-5-----------------5-5---|

G-------------------------------------------------|
D-------------------------------4---4---2---------|
A---------2-2-3---------2-2-3-----2---2-------5-3-|
E---3-5-5---------3-5-5-------------------5-5-----|

G-----------------------------|
D---------------5-5-5---------|
A---1---3-3-5-5-------3-3-5-5-|
E-----3-----------------------|
[ Tab from: http://www.guitartabs.cc/tabs/b/beatles/here_there_and_everywhere_btab.html ]
G---------------------------------------4---4-------------------|
D-----------------------------2-------4---4---2-----------------|
A---------2-2-3---------2-2-3---5-3-------------------------5-3-|
E---3-5-5---------3-5-5-------------------------5-5-5-7-8-5-----|

G-----------------------------|
D-----------------------------|
A---1---3-3-5-5-------3-3-5-5-|
E-----3---------3-3-3---------|

G-----------------------------------------4---4-----------4-5-------|
D-------------------------------2-------4---4-----------7-----7-----|
A---------2-2-3-3---------2-2-3---5-3-----------7---------------5-5-|
E---3-5-5-----------3-5-5-------------------------5-5-5-------------|

G-------------------------------------|
D-------------------------------------|
A---------2-2-3-3---------2-2-3-3-----|
E---3-5-5-----------3-5-5---------8\3-|
Comments