Beatles - Here Comes The Sun Chords & Tabs

 

Here Comes The Sun Chords & Tabs

Beatles Chords & Tabs

Version: 3 Type: Bass Tab 0 ratings
1 star 2 stars 3 stars 4 stars 5 stars
comments

Here Comes The Sun Bass Tab

UPDATED FOR ACCURACY: 7.29.12

This is one of the best songs ever written (in my opinion) 
and I think it should have a correct and good-sounding bass 
tab to go along with it, so, I wrote this one myself, from scratch.
Email comments or questions to kennyskelton@yahoo.com. 
-Ken


Here comes the sun, here comes the sun, and I say………
                                  2X
G----------------|-----------------------------------|
D----------------|---7--7--7--7----------69-6-7------|
A----------------|--0-00-00-00-0-5-545-79------------|
E-10-9-7-5-0-4---|-----------------------------------| 

G----------------------------------|---------------------|
D---7--7--7--7-------------67-767--|--------------------2|
A--0-00-00-00-975-545-6-656------0-|--------------0-00---|
E----------------------------------|-10-9-7-5-0-4--------| 

             2X
G-----------------------------------|
D---7--7--7--7----------69-6-7------|
A--0-00-00-00-0-5-545-79------------|
E-----------------------------------| 

[ Tab from: http://www.guitartabs.cc/tabs/b/beatles/here_comes_the_sun_btab_ver_3.html ]
G----------------------------------|---------------------|
D---7--7--7--7-------------67----47|-------------------22|
A--0-00-00-00-975-545-6-656---457--|-------------0-00-0--|
E----------------------------------|10-9-7-5-0-4---------| 


Sun, sun, sun, here it comes………
           5X
G-5-------------------|-5--------------------------------------------|
D---5-4----4-7---22---|---5-4----4-7-7-7-6-6646-7-7767-9-9979-1212-14|
A--------5------------|--------5-------------------------------------|
E-------------------0-|----------------------------------------------|


Little darling, I feel that ice is slowly melting………
               2X
G-----------------------------------|
D---7--7--7--7----------69-6-7------|
A--0-00-00-00-0-5-545-79------------|
E-----------------------------------| 

G----------------------------------|---------------|
D---7--7--7--7-------------67-767--|---------------|
A--0-00-00-00-975-545-6-656------0-|--------------0|
E----------------------------------|-10-9-7-5-0-4--| 

                                            2X
G----------------------------------|-------------------|
D---7--7--7--7-------------67----47|-------------------|
A--0-00-00-00-975-545-6-656---475--|--------------0-0-0|
E----------------------------------|-10-9-7-5-0-4------|
Comments