Beatles - Helter Skelter Chords & Tabs

 

Helter Skelter Chords & Tabs

Beatles Chords & Tabs

Version: 3 Type: Tab 0 ratings
1 star 2 stars 3 stars 4 stars 5 stars
comments

Helter Skelter Tab

Hey, I was looking for the helter skelter solo (not the verson from white album, but the 
from anthology 3) and i couldnt find it. SO,I decided to figure it out my damn self. 
here it is

1|---------------------------------------------------------|
2|---------------------------------------------------------|
3|-------------------------   14--14 14-12 12 14-----------|
4|-14b 14b 14b 14b 14b 14b 12 --------------------12-------|
5|---------------------------------------------------------|
6|---------------------------------------------------------|

1|------------------------------------------------------|
2|------------------------------------------------------|
3|------------------------------------------------------|
4|-14b 14b 14b 14b 14b 14b---12-7/9--12--9/7 7 9--------|
5|------------------------------------------------------|
6|------------------------------------------------------|

1|------------------------------------------------------|
2|------------------------------------------------------|
3|------------------------------------------------------|
4|-15/12/9------------19b-19b 19b 19b----15/12/9--------|
5|------------------------------------------------------|
6|------------------------------------------------------|

1|------------------------------------------------------|
2|------------------------------------------------------|
3|------------------------------------------------------|
4|-7/9 12 9 15 14 12 14 9-------------------------------|
5|------------------------------------------------------|
6|------------------------------------------------------|
[ Tab from: http://www.guitartabs.cc/tabs/b/beatles/helter_skelter_tab_ver_3.html ]
   "Do you or don't you want me to love you"
1|---------------------------------------------------------|
2|---------------------------------------------------------|
3|---------------------------------------------------------|
4|-7 7 7/9 12 9 15 14 12 14 9------------------------------|
5|---------------------------------------------------------|
6|---------------------------------------------------------|
  "Comin on fast but don't let me break you"

1|----------------------------------------------------------------|
2|----------------------------------------------------------------|
3|--------------------------------------------9-------------------|
4|-7 7 7/9 12 9 15 14 12 14 9 9 12 12 9 12 9 7-----7 9 12 9 9 9 9-|
5|----------------------------------------------------------------|
6|----------------------------------------------------------------|


There you have it. The solo for helter skelter. It's a good song isn't it...ohh and the 
part is like this...figure out what part it is... ill tab it here

1|------------------------------------------------------|
2|-0 0--0 0--------5 4 2 0------------------------------|
3|-2 2  4 4--5 4 2--------------------------------------|
4|------------------------------------------------------|
5|------------------------------------------------------|
6|------------------------------------------------------|

1|0 0--0 0-------- 5 4 2 0-------------------------------|
2|2 2--4 4 5 4 2 ----------------------------------------|
3|-------------------------------------------------------|
4|-------------------------------------------------------|
5|-------------------------------------------------------|
6|-------------------------------------------------------|

1|------------------------------------------------------|
2|-0 0-- 0 0----------5 4 2 0---------------------------|
3|-2 2-- 4 4 -5 4 2-------------------------------------|
4|------------------------------------------------------|
5|----------------------------------3b------------------|
6|------------------------------------------------------|
Comments