Beatles - Help Chords & Tabs

 

Help Chords & Tabs

Beatles Chords & Tabs

Version: 1 Type: Chords 1 rating
1 star 2 stars 3 stars 4 stars 5 stars
comments

Help Chords

#----------------------------------PLEASE NOTE---------------------------------#
#This file is the author's own work and represents their interpretation of the #
#song. You may only use this file for private study, scholarship, or research. #
#------------------------------------------------------------------------------#

Date: Sat, 20 Jan 1996 04:40:36 -0600
From: cts@mail.utexas.edu (chris)
Subject: Help! by The Beatles

                                     Help!
                              (Lennon/McCartney)
                                  The Beatles
                                  Help! (1965)


INTRO (from mc_baseuk@yahoo.co.uk)
[ Tab from: http://www.guitartabs.cc/tabs/b/beatles/help_crd.html ]
E -------------------------------------------------|
B -------0-------0-------0-------0-----------------|
G -----0-------0-------0-------0------2------------|
D ---5-------4-------3-------2--------2------------|
A -7-------6-------5-------4-------0---------------|
E -------------------------------------------------|





Date: Tue, 05 Nov 2002 19:18:34 +0000
From: Bruno Guerra 
Subject: b/beatles/help.tab

I´´m glad to have the oportunity to aport this part of this classic,
 
This part is the one played before th intro
 
Help in need...
Help not...
Help you...
Help!!
 
 
e------------------------------------------------|
B-----------0-----0------0-----0--2--------------|
D---------0-----0------0-----0----2--------------|
G-------5-----4-----3------2------2--------------|
A-----7------6----5-------4-------0--------------|
E------------------------------------------------|
 
The other part of the son is already submited
I hope you enjoy the song...
 
if you have somethin to say about just write to these adrees
elpato96@hotmail.com
 
Bruno Guerra.
Comments