Beatles - Happiness Is A Warm Gun Chords & Tabs

 

Happiness Is A Warm Gun Chords & Tabs

Beatles Chords & Tabs

Version: 1 Type: Bass Tab 0 ratings
1 star 2 stars 3 stars 4 stars 5 stars
comments

Happiness Is A Warm Gun Bass Tab

Title        : Happiness Is A Warm Gun
Artist/Group : The Beatles     
Album        : The Beatles
Info         : 4 String Standard Bass 
Date - Time  : 7/28/2002 - 1:22:16 PM
Created by   : Ken Robertson

G---9-9-9-9-9-9-9-|-------------------------|---------------------|
D-----------------|-------------7---7-------|---------7---7-------|
A-----------------|-5---5---5-----7---7---4-|-5---5-----7---7---4-|
E-----------------|---5---5---5---------5---|---5---5---------5---|
                                                                      
G-----------------------|--------------9-9-9-9-9-7-6---|
D-----------7---7-------|-----------7----------------9-|
A---5---5-----7---7---4-|-5---5---5--7-----------------|
E-----5---5---------5---|---5---5----------------------|

G---------------------------4-5-----------|
D-------5-6-7---7---5-6-7-8-----------7---|
A-----7-------7---7---------------------7-|
E---5---------------------------3-2-1-----|

G---------------------------4-5---------|
D-------5-6-7-------5-6-7-8-----------7-|
A-----7-------7---7---------------------|
E---5-----------5---------------3-2-1---|
[ Tab from: http://www.guitartabs.cc/tabs/b/beatles/happiness_is_a_warm_gun_btab.html ]
G-------------------2-------------------------------|
D---------------2-5---5-2-------------------5-3-----|
A---0-0-0-0-0-3-------------0-0-0-0-0---2-5-----5---|
E-------------------------------------3-----------3-|

G-------------------2-------------------------------|
D---------------2-5---5-2-------------------5-3-----|
A---0-0-0-0-0-3-------------0-0-0-0-0---2-5-----5---|
E-------------------------------------3-----------3-|

G-------------------2-------------------------------|
D---------------2-5---5-2-------------------5-3-----|
A---0-0-0-0-0-3-------------0-0-0-0-0---2-5-----5---|
E-------------------------------------3-----------3-|

G---------------------------------|
D---------------------------------|
A---3-2-0-----0-2---3-2-0-----0-2-|
E---------1-3-------------1-3-----|

G-------------------------------------|
D-------------------------------------|
A---3-0-0-------3-0-0-------3-0-0-----|
E---------1-3---------1-3---------1-3-|

G-------------------------------------------------------------|
D-------------------------------------------------------------|
A---3-2-0---------0-2---3-2-0---------0-2---3-2-0---------0-2-|
E---------3-1-1-3-------------3-1-1-3-------------3-1-1-3-----|

G-----------------------|
D-----------------------|
A---3-2-0---------0-2-3-|
E---------3-1-1-3-------|
Comments