Beatles - Golden Slumbers Chords & Tabs

 

Golden Slumbers Chords & Tabs

Beatles Chords & Tabs

Version: 1 Type: Bass Tab 0 ratings
1 star 2 stars 3 stars 4 stars 5 stars
comments

Golden Slumbers Bass Tab

Song: Golden Slumbers
Artist: Beatles
Album: Abbey Road
Tabbed By: Kenny Borders (kennyborders@hotmail.com)

Bass comes in on 2nd measure
G----------|----------|----------|----------|----------|
D-4/7------|----------|----------|----------|-2/5------|
A----------|----------|-2/5------|----------|----------|
E----------|----------|----------|----------|----------|

G----------|----------|---TWO----|------4---|----------|
D------2---|-7--------|---BEAT---|-5-7----5-|----------|
A-3--------|------5---|-MEASURE--|----------|-3--------|
E----------|----------|----------|----------|----------|
[ Tab from: http://www.guitartabs.cc/tabs/b/beatles/golden_slumbers_btab.html ]
G----------|----------|----------|----------|----------|
D----0h2h5-|-3-30h2h5-|----0h2h5-|----0h2h5-|-3-30h2h5-|
A-3-3-----3|---------3|-3-3-----3|-3-3-----3|---------3|
E----------|----------|----------|----------|----------|

G----------|----------|---TWO----|------4---|----------|
D----------|----------|---BEAT---|-5-7----5-|----------|
A-3-3--2-2-|------5---|-MEASURE--|----------|-3--------|
E----------|-5-5------|----------|----------|----------|

G----------|----------|----------|-7--------|----------|
D-5/7------|----------|----------|---------5|-5----5-5-|
A----------|----------|-5--------|--5---5/7-|----------|
E----------|-5--------|----------|----------|----------|

G----------|----------|-2-2-\7---|---TWO----|------4-7\|
D-5\-------|------2-2-|--------5-|---BEAT---|-5-7------|
A----------|-3-3------|----------|-MEASURE--|----------|
E----------|----------|----------|----------|----------|

G----------|
D----------|  To "Carry That Weight"
A-3--------|
E----------|
Comments