Beatles - Getting Better Chords & Tabs

 

Getting Better Chords & Tabs

Beatles Chords & Tabs

Version: 1 Type: Bass Tab 0 ratings
1 star 2 stars 3 stars 4 stars 5 stars
comments

Getting Better Bass Tab

   
The Beatles - Getting better (bass tab)
From the album: Sgt Pepper's lonely hearts club band

      main part
G|---|-------------|
D|---|-------------|
A|---|-----/10-10\-|
E|-0-|3--3---------|
      *  *  *  *

I have to admit it is getting better...
G|-----------5---------------------|
D|-----235-7---7-5-2-3-5-----2-3---|
A|-3-3------------------/3-5----/3-|
E|---------------------------------|
   * * * *|* * * *|* * * *|* * * *
[ Tab from: http://www.guitartabs.cc/tabs/b/beatles/getting_better_btab.html ]
G|-------5-5-----------------------|
D|----2/5-------2--5-------3-------|
A|----------------------5-------/3-|
E|-3-------------------------------|
   * * * *|* * * *|* * * *|* * * *

G|-------5-5--5--------------------|
D|---23/5-------2--5-------3-------|
A|----------------------5-------/3-|
E|-3-------------------------------|
   * * * *|* * * *|* * * *|* * * *

getting so much
G|-----------------|
D|-3-2-3-2-3-2-----|
A|-------------0-2-|
E|-----------------|
   * * * *|* * * *

  main part variation
G|-----/12-12\-|
D|-------------|
A|-------------|
E|3--3---------|
  *  *  *  *

end
G|---
D|---
A|-3-
E|---

submitted by dION (kantongerecht@hotmail.com)
Comments