Beatles - For No One Chords & Tabs

 

For No One Chords & Tabs

Beatles Chords & Tabs

Version: 1 Type: Bass Tab 0 ratings
1 star 2 stars 3 stars 4 stars 5 stars
comments

For No One Bass Tab

Title        : For No One
Artist/Group : The Beatles     
Album        : Revolver
Info         : 4 String Standard Bass 
Date - Time  : 8/1/2002 - 10:48:29 PM
Created by   : Ken Robertson

G------------------5-6----------------5-6---------|
D-----6--------4-6-----6----------4-6-------------|
A---4---4--6-7-----------4--4-6-7----------9--9-9-|
E-------------------------------------------------|

G---------------------------------|--------------------------------------|
D-------------------------------9-|-----9-8--8-8-6--6-4-----7-8-9--9-----|
A---2--2-1--------------------9---|-9-9------------------7-----------9---|
E-----------4--4-2--2-0--5--7-----|------------------------------------7-|
[ Tab from: http://www.guitartabs.cc/tabs/b/beatles/for_no_one_btab.html ]
G------------------5-6----------------5-6------|
D-----6--------4-6-----6----------4-6----------|
A---4---4--6-7-----------4--4-6-7----------9-9-|
E----------------------------------------------|

G---------------------|-----------------------------------------------------
D-------------------9-|---9--9-9\8--8-8\6--6-6-6\4--4-4-4\2--2-2-2--7-7-8-9-
A---2-1-----------9---|-9---------------------------------------------------
E-------4-2-0-5-7-----|-----------------------------------------------------

G-------|
D-9-----|
A---9---|
E-----7-|

G------------------------5-6-----------------5-6------|
D---------6----------4-6------6----------4-6------4-4-|
A---4-6-7---4--4-6-7------------4--4-6-7--------------|
E-----------------------------------------------------|
Comments