Beatles - Fixing A Hole Chords & Tabs

 

Fixing A Hole Chords & Tabs

Beatles Chords & Tabs

Version: 2 Type: Tab 0 ratings
1 star 2 stars 3 stars 4 stars 5 stars
comments

Fixing A Hole Tab

Band: The Beatles
Song: Fixing a Hole (solo)
Album: Sgt. Pepper's Lonely Hearts Club Band
Tabber: clark@theoddmenout.com

Dropped "D" Tuning

[ Tab from: http://www.guitartabs.cc/tabs/b/beatles/fixing_a_hole_tab_ver_2.html ]
Solo: (1:16)
e--0-/0---------/3v-------3--------------------------0------|
B--3-/5----3----/5----/5---------5---------------5------/8--|
G--2-/4----2-----------------4---------4------4-------------|
D----------------------------------5-----2------------------|
A-----------------------------------------------------------|
D-----------------------------------------------------------|

e---------------------------------------------------------|
B---------------------------------------------------------|
G---------------------------------------------------------|
D----------5--7b8r-7--------------------------------------|
A--5--/7---------------7---5---4---2---0------------------|
D------------------------------------------5---2---0---2--|


That's it! For suggestions, corrections, and requests, email me:
                        oddmenout4@yahoo.com
Comments