Beatles - Eight Days A Week Chords & Tabs

 

Eight Days A Week Chords & Tabs

Beatles Chords & Tabs

Version: 7 Type: Bass Tab 0 ratings
1 star 2 stars 3 stars 4 stars 5 stars
comments

Eight Days A Week Bass Tab

----------------------------------------------------------------------------
	          "EIGHT DAYS A WEEK" - The Beatles
----------------------------------------------------------------------------

Tabbed By :Superkisseler

Tuning: Standard

I'm 100% sure that this is right.

INTRO:

You don't play during the intro

VERSE:

G|-------------------------------------------------------------------------|
D|-------------------------------------------------------------------------|
A|-------5-----------------3-----------5-----------------------------------|
E|-5--7-----7--5--0--2--4-----3--5--7-----7--5--0--2--4--------------------|

[ Tab from: http://www.guitartabs.cc/tabs/b/beatles/eight_days_a_week_btab_ver_7.html ]
"HOLD ME, LOVE ME...":

G|-------------------------------------------------------------------------|
D|-------------------------------------------------------------------------|
A|-2X--2X--2---------------2X--2X--2---------------------------------------|
E|-------------3X--3X--3--------------3X--3X--3----------------------------|


CHORUS:

G|-------------------------------------------------------------------------|
D|-------------------------------------------------------------------------|
A|-2-----------------------------------------------------------------------|
E|-------3-----------------------------------------------------------------|
Comments