Beatles - Drive My Car Chords & Tabs

 

Drive My Car Chords & Tabs

Beatles Chords & Tabs

Version: 3 Type: Bass Tab 0 ratings
1 star 2 stars 3 stars 4 stars 5 stars
comments

Drive My Car Bass Tab

DRIVE MY CAR

Written by Paul McCartney & John Lennon

INTRO

  4/4                               9/8
G|-------------------------5---7---|-------------------------------------|
D|--------------------/7-----------|-------------------------------------|
A|---------------------------------|-5-----------------------------------|
E|---------------------------------|-------------------------------------|

VERSE

  4/4
G|---------------------------------|---------------------------------|
D|---------------------7-----------|---------------------------------|
A|-5-------------7/9-------9\7-5---|---------------------5-----------|
E|---------------------------------|-3-------------5/7-------7\5-3---|

G|---------------------------------|---------------------------------|
D|---------------------7-----------|---------------------------------|
A|-5-------------7/9-------9\7-5---|---------------------5-----------|
E|---------------------------------|-3-------------5/7-------7\5-3---|

G|---------------------------------|---------------------------------|
D|---------------------7-----------|---------------------------------|
A|-5-------------7/9-------9\7-5---|---------------------5-----------|
E|---------------------------------|-3-------------5/7-------7\5-3h5-|

G|---------------------------------|---------------------------------|
D|---------------------------------|---------------------------------|
A|---------------------------------|---------------------7---9-7-----|
E|-5-------5-------5---5---5---5---|-5---5---5---5--/9-----------9---|

CHORUS

G|---------------------------------|---------------------------------|
D|---------------------------------|---------------------------------|
A|---------------------------------|---------------------------------|
E|-7-------7-------7-------7---5---|-3-------3-------3-------3---5---|

G|---------------------------------|---------------------------------|
D|---------------------------------|---------------------------------|
A|---------------------------------|---------------------------------|
E|-7-------7-------7-------7---5---|-3-------3-------3-------3---5---|

G|---------------------------------|---------------------------------|
D|---------------------------------|---------------------------------|
A|---------------------------------|-----------------0---------------|
E|-7-------7-------7-------7-------|-0---2---3---0-------3---2---0---|

G|---------------------------------|---------------------------------|
D|---------------------------------|---------------------------------|
A|-5-------5-----------5-----------|---------------------7-----------|
E|---------------5/7-------7---0---|-5-------5-----5-7/9-----9-x-5---|

VERSE

G|---------------------------------|---------------------------------|
D|---------------------7-----------|---------------------------------|
A|-5-------------7/9-------9\7-5---|---------------------5-----------|
E|---------------------------------|-3-------------5/7-------7\5-3---|

G|---------------------------------|---------------------------------|
D|---------------------7-----------|---------------------------------|
A|-5-------------7/9-------9\7-5---|---------------------5-----------|
E|---------------------------------|-3-------------5/7-------7\5-3---|

G|---------------------------------|---------------------------------|
D|---------------------7-----------|---------------------------------|
A|-5-------------7/9-------9\7-5---|---------------------5-----------|
E|---------------------------------|-3-------------5/7-------7\5-3h5-|

G|---------------------------------|---------------------------------|
D|---------------------------------|---------------------------------|
A|---------------------------------|---------------------7---9-7-----|
E|-5-------5-------5---5---5---5---|-5---5---5---5--/9-----------9---|

CHORUS

G|---------------------------------|---------------------------------|
D|---------------------------------|---------------------------------|
A|---------------------------------|---------------------------------|
E|-7-------7-------7-------7---5---|-3-------3-------3-------3---5---|

G|---------------------------------|---------------------------------|
D|---------------------------------|---------------------------------|
A|---------------------------------|---------------------------------|
E|-7-------7-------7-------7---5---|-3-------3-------3-------3---5---|

G|---------------------------------|---------------------------------|
D|---------------------------------|---------------------------------|
A|---------------------------------|-----------------0---------------|
E|-7-------7-------7-------7-------|-0---2---3---0-------3---2---0---|

G|---------------------------------|---------------------------------|
D|---------------------------------|---------------------------------|
A|-5-------5-------5---5---5-------|---------------------------------|
E|---------------------------------|-5-------------------------------|

GUITAR SOLO

G|---------------------------------|---------------------------------|
D|---------------------7-----------|---------------------------------|
A|-5-------5-----5-7/9-----9\7-5---|---------------------5---7-5-----|
E|---------------------------------|-3-------3-----3-7-----------7---|
[ Tab from: http://www.guitartabs.cc/tabs/b/beatles/drive_my_car_btab_ver_3.html ]
G|---------------------------------|---------------------------------|
D|---------------------7-----------|---------------------------------|
A|-5-------5-----5-7/9-----9\7-5---|---------------------5---7-5-----|
E|---------------------------------|-3-------3-----3-7-----------7---|

G|---------------------------------|---------------------------------|
D|---------------------7-----------|---------------------------------|
A|-5-------5-----5-9-------9\7-5---|---------------------5---7-5-----|
E|---------------------------------|-3-------3-----3-7-----------7---|

G|---------------------------------|---------------------------------|
D|---------------------------------|---------------------------------|
A|---------------------------------|---------------------7---9-7-----|
E|-5---5---5---5---5---5---5---5---|-5---5---5---5--/9-----------9---|

CHORUS

G|---------------------------------|---------------------------------|
D|---------------------------------|---------------------------------|
A|---------------------------------|---------------------------------|
E|-7-------7-------7-----7-7---5---|-3-------3-------3-----3-3---5---|

G|---------------------------------|---------------------------------|
D|---------------------------------|---------------------------------|
A|---------------------------------|---------------------------------|
E|-7-------7-------7-------7---5---|-3-------3-------3-----0-3---5---|

G|---------------------------------|---------------------------------|
D|---------------------------------|---------------------------------|
A|---------------------------------|-----------------0---------------|
E|-7-------7-------7-----7-7-------|-0---2---3---0-------3---2---0---|

G|---------------------------------|---------------------------------|
D|---------------------------------|---------------------------------|
A|-5-------5-----------5-----------|---------------------7---9-7-----|
E|---------------5/7-------7\5-3---|-5-------5-----7/9-----------9---|

VERSE

G|---------------------------------|---------------------------------|
D|---------------------7-----------|---------------------------------|
A|-5--------------/9-------9\7-5---|---------------------5-----------|
E|---------------------------------|-3-------3-----3-7-------7\5-3---|

G|---------------------------------|---------------------------------|
D|---------------------7-----------|---------------------------------|
A|-5-------5------/9-------9\7-5---|---------------------5-----------|
E|---------------------------------|-3-------3-----3-7-------7\5-3---|

G|---------------------------------|---------------------------------|
D|---------------------7-----------|---------------------------------|
A|-5-------5------/9-------9\7-5---|---------------------5-----------|
E|---------------------------------|-3-------3-----3-5/7-----7\5-3---|

G|---------------------------------|---------------------------------|
D|---------------------------------|---------------------------------|
A|---------------------------------|---------------------7---9-7-----|
E|-5-------5-------5---5---5---5---|-5---5---5---5--/9-----------9---|

CHORUS

G|---------------------------------|---------------------------------|
D|---------------------------------|---------------------------------|
A|---------------------------------|---------------------------------|
E|-7-------7-------7-----7-7---5---|-3-------3-------3-----3-3---5---|

G|---------------------------------|---------------------------------|
D|---------------------------------|---------------------------------|
A|---------------------------------|---------------------------------|
E|-7-------7-------7-------7---5---|-3-------3-------3-----0-3---5---|

G|---------------------------------|---------------------------------|
D|---------------------------------|---------------------------------|
A|---------------------------------|-----------------0---------------|
E|-7-------7-------7-----7-7-------|-0---2---3---0-------3---2---0---|

G|---------------------------------|---------------------------------|
D|---------------------------------|---------------------------------|
A|-5-------5-----------------------|---------------------------------|
E|-----------------3---3-------3---|-5-------------------------------|

OUTRO

G|---------------------------------|---------------------------------|
D|---------------------------------|---------------------------------|
A|-5-------5---------------2-------|---------------------------------|
E|-----------------3---3-------3---|-5-------5-------5---5-------5---|

G|---------------------------------|---------------------------------|
D|---------4---7-------------------|---------------------------------|
A|-5-----------------------2---5---|---------4---4---7---7---7-------|
E|-----------------3---3-----------|-5---5---------------------------|

G|---------------------------------|---------------------------------|
D|---------------------------------|---------------------------------|
A|-5-------5---------------2-------|---------------------------------|
E|-----------------3---3-------3---|-5-------5-------5---5-------5---|

G|---------------------------------|---------------------------------|
D|---------4---7-------------------|---------------------------------|
A|-5-----------------------2---5---|---------4---4---7---7---7-------|
E|-----------------3---3-----------|-5---5---------------------------|
                                                             FADE OUT
Comments