Beatles - Dont Let Me Down Chords & Tabs

 

Dont Let Me Down Chords & Tabs

Beatles Chords & Tabs

Version: 2 Type: Tab 0 ratings
1 star 2 stars 3 stars 4 stars 5 stars
comments

Dont Let Me Down Tab

   
Intro riff:

E
--------------------------|
--------------------------|
--------------------------|
------7s-11-9---7--6------|
---9----------9-----------|
--------------------------|
Chorus:

F#m7   F#m7/B
--9--------9---|
--10-------10--|
--9--------9---|
--11-------9---|
--9--------9---|
---------------|

Verse:

"like she does:

         F#m7                                              Emaj7  Esus E

-----------14\12--12--12\9---9---9----------------------------7-----7---0-|
-----------14\12--12--12\10--10--10---------------------------9-----10--0-|
-------------------------------------11\9--9--9--9\6--6--6----8-----9---1-|
--------------------------------------------------------------9-----9---2-|
--------------------------------------------------------------7-----7---2-|
------------------------------------------------------------------------0-|

"like she do me"

          F#m7                                               Emaj7 Esus  E

-----------14\12--12--12\9---9---9------------------------------------------|
-----------14\12--12--12\10--10--10--10-----------------------9-------9-9---|
-------------------------------------11--11-11-11-9--9\6-6/9--9--9----9-9-9-|
-----------------------------------------11-11-11-9-----------9--9h11-----9-|
----------------------------------------------------------------------------|
----------------------------------------------------------------------------|

Bridge:

"for the first time"

 E                                             B7
[ Tab from: http://www.guitartabs.cc/tabs/b/beatles/dont_let_me_down_tab_ver_2.html ]
---------------------------------------------------------------------------|
---------------------------------------------------------------------------|
----------------9--8--9--6--9-----9-----9-----9----------------------------|
-------------------------------9-----6--------------------7-----6----------|
-------------7-----------------------------9--------9--6-----9-----7--9--6-|
-------------------------------------------------7-------------------------|
                                              E   A  E

----------------------------------------------|
----------------------------------------------|
----------------------------------------------|
--------------------7-----6-------------------|
-7-----6------9--6-----9-----7--9--6--7-----6-|
----7------7-----------------------------7----|

Lyrics:

(*-intro riff)

Chorus:

              F#m7   F#m7/B        E* A  E

 Don't let me down   Don't let me down
            F#m7   F#m7/B        E*  A  E

Don't let me down   Don't let me down
E                             F#m7

Nobody ever loved me like she does
                    F#m/B      Emaj7 Esus  E

oo she does  yes she does
E                                      F#m7

And if somebody ever loved me like she do me
                     F#m/B      Emaj7  Esus  E

oo she do me, yes she does

(chorus)

E                                       F#m7

And from the first time that she really done me
                           F#m/B      Emaj7 Esus  E

oo she done me, she done me good
E                          F#m7

I guess nobody ever really done me
                           F#m/B      Emaj7 Esus  E

oo she done me, she does me good


(chorus)

E                                                          B7

I'm in love for the first time  Don't you know it's gonna last

                                                          E *  A  E

It's a love that lasts forever,   It's a love that had no past

(chorus)
Comments